PrimaNota.ru - самый крупный в мире бесплатный архив песенных текстов, аккордов, табулатур и нот


Six Feet Under - Ghosts Of The Undead - таба, бас-таба, видео

Регистрация Запомнить меня
Войти через:  Facebook Google Twitter Vk Yandex Mail.ru

Six Feet Under - Ghosts Of The Undead - таба, бас-таба, видео

Печатать
Просмотров: 119
Six Feet Under - Ghosts of the Undead (No Solo)

Steve Swanson

Tuning

C/F/A#/D#/G/C 6-String

~~ = Slide
x  = How Many Times To Play


----------------------------------------------------------------|
----------------------------------------------------------------|
----------------------------------------------------------------|
5-----4--------8-----7--------5-----4--------8-----7---7-7-8----|
5-2-2-4-2-2-2--8-2-2-7-2-2-2--5-2-2-4-2-2-2--8-2-2-7-2-5-5-6----|
3-0-0-2-0-0-0--6-0-0-5-0-0-0--3-0-0-2-0-0-0--6-0-0-5-0-5-5-6----|   4x


------------------------------------------------------------|
------------------------------------------------------------|
------------------------------------------------------------|
7---3-3--6--------------------------------------------------|
7---3-3--6--------------------------------------------------|
5---1-1--4--------------------------------------------------|    3x


------------------------------------------------------------|
------------------------------------------------------------|
------------------------------------------------------------|
6---7-7--3--------------------------------------------------|
6---7-7--3--------------------------------------------------|
4---5-5--1--------------------------------------------------|   1x


----------------------------------------------------------------|
----------------------------------------------------------------|
----------------------------------------------------------------|
5-----4--------8-----7--------5-----4--------8-----7---7-7-8----|
5-2-2-4-2-2-2--8-2-2-7-2-2-2--5-2-2-4-2-2-2--8-2-2-7-2-5-5-6----|
3-0-0-2-0-0-0--6-0-0-5-0-0-0--3-0-0-2-0-0-0--6-0-0-5-0-5-5-6----|   4x


------------------------------------------------------------|
------------------------------------------------------------|
------------------------------------------------------------|
7---3-3--6--------------------------------------------------|
7---3-3--6--------------------------------------------------|
5---1-1--4--------------------------------------------------|    3x


------------------------------------------------------------|
------------------------------------------------------------|
------------------------------------------------------------|
6---7-7--3--------------------------------------------------|
6---7-7--3--------------------------------------------------|
4---5-5--1--------------------------------------------------|    1x


-----------------------------------------------------------------|
-----------------------------------------------------------------|
-----------------------------------------------------------------|
-----------------------------------------------------------------|
-----------------------------------------------------------------|
5-5-5-5-5-5-5-5-4-4-4-4-4-4-4-4-1-1-1-1-1-1-1-1-4-4-4-4-4-4-4-4--| 2x


-----------------------------------------------------------------|
-----------------------------------------------------------------|
-----------------------------------------------------------------|
-----------------------------------------------------------------|
-----------------------------------------------------------------|
7-7-7-7-7-7-7-7-6-6-6-6-6-6-6-6-3-3-3-3-3-3-3-3-6-6-6-6-6-6-6-6--| 2x


-----------------------------------------------------------------|
-----------------------------------------------------------------|
-----------------------------------------------------------------|
-----------------------------------------------------------------|
-----------------------------------------------------------------|
5-5-5-5-5-5-5-5-4-4-4-4-4-4-4-4-1-1-1-1-1-1-1-1-4-4-4-4-4-4-4-4--| 2x


-----------------------------------------------------------------|
-----------------------------------------------------------------|
-----------------------------------------------------------------|
-----------------------------------------------------------------|
-----------------------------------------------------------------|
7-7-7-7-7-7-7-7-6-6-6-6-6-6-6-6-3-3-3-3-3-3-3-3-6-6-6-6-6-6-6-6--| 2x


-----------------------------------------------------------------|
-----------------------------------------------------------------|
-----------------------------------------------------------------|
7-5-4-2----------------------------------------------------------|
5-3-2-0-5-4------------------------------------------------------|
5-------3-2------------------------------------------------------| 1x


----------------------------------------------------------------|
----------------------------------------------------------------|
----------------------------------------------------------------|
5-----4--------8-----7--------5-----4--------8-----7---7-7-8----|
5-2-2-4-2-2-2--8-2-2-7-2-2-2--5-2-2-4-2-2-2--8-2-2-7-2-5-5-6----|
3-0-0-2-0-0-0--6-0-0-5-0-0-0--3-0-0-2-0-0-0--6-0-0-5-0-5-5-6----|   4x


------------------------------------------------------------|
------------------------------------------------------------|
------------------------------------------------------------|
7---3-3--6--------------------------------------------------|
7---3-3--6--------------------------------------------------|
5---1-1--4--------------------------------------------------|    3x


------------------------------------------------------------|
------------------------------------------------------------|
------------------------------------------------------------|
6---7-7--3--------------------------------------------------|
6---7-7--3--------------------------------------------------|
4---5-5--1--------------------------------------------------|   1x


---------    -----------       |
---------    -----------       |
---------    -----------       |
7---3--6-    --6---7--3-       |
7---3--6-    --6---7--3-       |
5---1--4- x3 --4---5--1-  x1   |  x3


--------  Outro----------|
--------  Riff ----------|
--------       ----------|
7---3--6       -6---7~~3-|
7---3--6       -4---7~~3-|
5---1--4 x3    -4---5~~1-| Hold it (Fade Out)

End
Добавлено: 30.06.2013
Другие материалы по этой песне:
  • Аккорды и текст

Страница создана 30.06.2013
http://primanota.ru/six-feet-under/ghosts-of-the-undead-chords.htm
Привет, Гость.
Предлагаем пройти революционный курс по гитаре.
Подарок от PrimaNota.Ru, забирай!