PrimaNota.ru - самый крупный в мире бесплатный архив песенных текстов, аккордов, табулатур и нот


Six Feet Under - Revenge Of The Zombie - аккорды и текст, таба, бас-таба, видео

Регистрация Запомнить меня
Войти через:  Facebook Google Twitter Vk Yandex Mail.ru

Six Feet Under - Revenge Of The Zombie - аккорды и текст, таба, бас-таба, видео

Печатать
Просмотров: 214
Авторы: Allen West, Chris Barnes

Revenge Of The Zombie
Six Feet Under
		   e: Thu, 14 May 1998 13:50:26 -0400

Revenge Of the Zombie
Six Feet Under
Off Warpath
By James Needre (rneed@ma.ultranet.com)
http://www.geocities.com/SunsetStrip/Palladium/6662/

Tuning is a whole step down. (D,G,C,F,A,D)
p.m.=palm muting
/=slide

Riff A

G---7-7-7-7-7-8--7-7-7-7-7-5--
D-----------------------------


Riff B

C---9-9-9-9-9-10--9-9-9-9-9-7--
G---7-7-7-7-7--8--7-7-7-7-7-5--
D------------------------------


Riff C

G--2--2-2-2-2--2--2-2-2-2--5-5--6--3--
D--0--0-0-0-0--0--0-0-0-0--3-3--4--1--
        p.m.        p.m.


Riff D

C--------------------------10--10-9-----
G--7--7-7-7-7--7--7-7-7-7---8--8--7--10--
D--5--5-5-5-5--5--5-5-5-5-------------8--
        p.m.        p.m.


Riff E

D-------------------------------
A-------------------------------
F---9-9-9-9-9-10---9-9-9-9-9-8--
C-------------------------------
G-------------------------------
D-------------------------------


End

D------
A------
F--8/--
C------
G------
D------


Order
Riff A    x8
Riff C    x8
Riff B    x4
Riff C    x4
Riff B    x8
Riff D    x4
Riff B    x4
Riff D    x4
Riff B    x4
Riff A    x2
Riff E    x2
Riff C    x8
Riff B    x4
Riff A    x2
Riff E    x2
End       x1


Lyrics
From the grave I will escape
Maggots crawl from out my skull
The worms they feed upon my brain
The life I lost I now regain

And my skin has molded green
Bullet holes through flesh and bone
Half my face rotted off
I wait to drink your fucking blood-blood!

Hunting-Killing
Murderous
I'll cut your fucking head off!

Hunting-Killing
Murderous
I'll cut your fucking head off!

A butcher's knife clenched in my fist
Revenge of the Zombie
Stabbing you to fucking death
Revenge of the Zombie
Hacking eyes right from your face
Revenge of the Zombie
I feed upon your dying brain
Revenge of the Zombie
To live your life in horrid pain
Revenge of the Zombie
Open sores start to decay
Revenge of the Zombie
New human beings I create
Revenge of the Zombie
From my spell you can't escape
Revenge of the Zombie     
Добавлено: 01.12.2013
Другие материалы по этой песне:

Страница создана 19.03.2012
http://primanota.ru/six-feet-under/revenge-of-the-zombie-chords.htm
Привет, Гость.
Предлагаем пройти революционный курс по гитаре.
Подарок от PrimaNota.Ru, забирай!