PrimaNota.ru - самый крупный в мире бесплатный архив песенных текстов, аккордов, табулатур и нот


Six Feet Under - Non Existence - аккорды и текст, таба, бас-таба, видео

Регистрация Запомнить меня
Войти через:  Facebook Google Twitter Vk Yandex Mail.ru

Six Feet Under - Non Existence - аккорды и текст, таба, бас-таба, видео

Печатать
Просмотров: 162
Non Existence
Six Feet Under
		   e: Fri, 03 Apr 1998 10:20:45 -0600

Nonexistence by Six Feet Under off the album Warpath. Here is Nonexistence:
Tabbed by Jeff Peters.

Drop D tuning,

Intro/Main Riff
|-------------------------------------------|E
           |-------------------------------------------|B
|-------------------------------------------|G
|-0-x-x-0-x-x-0-x-x-0-x-x-0-x-x-0-x-x-3-6-1-|d
|-0-x-x-0-x-x-0-x-x-0-x-x-0-x-x-0-x-x-3-6-1-|A
|-0-x-x-0-x-x-0-x-x-0-x-x-0-x-x-0-x-x-3-6-1-|D

Riff 2
|---------------------------------|
|---------------------------------|
|---------------------------------|
|-6-7-7-7-7-0-0-1-0-3-0-1-0-0-0-0-|
|-6-7-7-7-7-0-0-1-0-3-0-1-0-0-0-0-|
|-6-7-7-7-7-0-0-1-0-3-0-1-0-0-0-0-|
Riff 3
|-----------|
|-6-7-7-7-7-|
|-6-7-7-7-7-|
|-6-7-7-7-7-|

Riff 4   "We Just Want the Truth..."
|---------------------------|
|---------------------------|
|---------------------------|
|-0-x-x-x-1-1-1-1-3-x-x-x-4-|
|-0-x-x-x-1-1-1-1-3-x-x-x-4-|
|-0-x-x-x-1-1-1-1-3-x-x-x-4-|

Coda
|---------------------|
|---------------------|
|---------------------|
|-3-6-1-3-6-1-3-6-1-1-|
|-3-6-1-3-6-1-3-6-1-1-|
|-3-6-1-3-6-1-3-6-1-1-|

Order
Intro (x1)
Main Riff (x7)
Riff 2 (x3)
Riff 3 (x1)
Main Riff (x8)
Riff 2 (x3)
Riff 3 (x1)
Riff 4 (x4)
Main Riff (x5)
Riff 2 (x3)
Riff 3 (x1)
Main Riff (x6)


I don't know the guitar solo, but it can't be that hard, so maybe someone
can figure it out. If so, send it to this site, or e-mail it to me:

metalboy@mindspring.com     
Добавлено: 03.06.2013
Другие материалы по этой песне:

Страница создана 25.03.2012
http://primanota.ru/six-feet-under/non-existence-chords.htm
Привет, Гость.
Предлагаем пройти революционный курс по гитаре.
Подарок от PrimaNota.Ru, забирай!