PrimaNota.ru - самый крупный в мире бесплатный архив песенных текстов, аккордов, табулатур и нот


Shadows - One Day Ill Fly Away - бас-таба, видео

Регистрация Запомнить меня
Войти через:  Facebook Google Twitter Vk Yandex Mail.ru

Shadows - One Day Ill Fly Away - бас-таба, видео

Печатать
Просмотров: 85
s/shadows/One_day_I'll_fly_away.btab

Basstab by Jan Bjorklund, Finland  jani_bjorklund@yahoo.se>
You are welcome to request for basstabs!
Bienvenidos a pedirme transcripciones para el bajo!
Fingering and positions as suggested by TablEdit. 

TablEdited by Jan Bjorklund
Tuning : E A D G 	Time Signature: 4/4

 |       |       |       |        |       |       |       |        
|--------------------------------|--------------------------------|
|0-----0-------0-0-------0-----0-|0-----0-------0-0-------0-------|
|----0-----0---------0-----------|----0-----0---------0-----------|
|--------------------------------|--------------------------------|

 |       |       |       |        |       |       |       |        
|--------------------------------|--------------------------------|
|0-----0-------0-0-------0-----0-|0-----0-------0-0-------0-------|
|--------------------1-----------|----0-----0---------0-----------|
|----3-----3---------------------|--------------------------------|

 |       |       |       |        |       |       |       |        
|--------------------------------|--------------------------------|
|0-----0-------0-0-------0-----0-|0-----0-------0-0-------0-------|
|----0-----0---------0-----------|----0-----0---------0-----------|
|--------------------------------|--------------------------------|

 |       |       |       |        |       |       |       |        
|--------------------------------|--------------------------------|
|0-----0-------0-0-------0-----0-|0-----0-------0-0-------0-------|
|--------------------1-----------|----0-----0---------0-----------|
|----3-----3---------------------|--------------------------------|

 |       |       |       |        |       |       |       |        
|--------------------------------|--------------------------------|
|0-----0-------0-0-------0-----0-|0-----0-------0-0-------0-------|
|----0-----0---------0-----------|----0-----0---------0-----------|
|--------------------------------|--------------------------------|

 |       |       |       |        |       |       |       |        
|--------------------------------|--------------------------------|
|0-----0-------0-0-------0-----0-|0-----0-------0-0-------0-------|
|--------------------1-----------|----0-----0---------0-----------|
|----3-----3---------------------|--------------------------------|

 |       |       |       |        |       |       |       |        
|--------------------------------|--------------------------------|
|0-----0-------0-0-------0-----0-|0-----0-------0-0-------0---0---|
|----0-----0---------0-----------|----0-----0---------0---------4-|
|--------------------------------|--------------------------------|

 |       |       |       |        |       |       |       |        
|--------------------------------|--------------------------------|
|--------------------------------|------2-------2-----------------|
|2-----2-------2-2-------2-----2-|----2-----2-----0-------0-------|
|----2-----2---------2-----------|0-------------------0-----------|

 |       |       |       |        |       |       |       |        
|--------------------------------|------------------------0-------|
|0-----0-------0-----------------|----0-----0---------0-----------|
|----0-----0-----3-------3-----3-|--------------------------------|
|--------------------------------|3-----3-------3-3---------------|

 |       |       |       |        |       |       |       |        
|--------------------------------|--------------------------------|
|--------------------------------|------3-------3---------3-------|
|3-----3-------3-3-------3-------|----3-----3---------3-----------|
|----3-----3---------3-----------|1---------------1---------------|

 |       |       |       |        |       |       |       |        
|--------------------------------|--------------------------------|
|0-----0-------0-0-------0-----0-|0-----0-------0-0-------0-------|
|----0-----0---------0-----------|----0-----0---------0-----------|
|--------------------------------|--------------------------------|

 |       |       |       |        |       |       |       |        
|--------------------------------|--------------------------------|
|0-----0-------0-0-------0-----0-|0-----0-------0-0-------0-------|
|--------------------1-----------|----0-----0---------0-----------|
|----3-----3---------------------|--------------------------------|

 |       |       |       |        |       |       |       |        
|--------------------------------|--------------------------------|
|0-----0-------0-0-------0-----0-|0-----0-------0-0-------0-------|
|----0-----0---------0-----------|----0-----0---------0-----------|
|--------------------------------|--------------------------------|

 |       |       |       |        |       |       |       |        
|--------------------------------|--------------------------------|
|0-----0-------0-0-------0-----0-|0-----0-------0-0-------0-------|
|--------------------1-----------|----0-----0---------0-----------|
|----3-----3---------------------|--------------------------------|

 |       |       |       |        |       |       |       |        
|--------------------------------|--------------------------------|
|0-----0-------0-0-------0-----0-|0-----0-------0-0-------0---0---|
|----0-----0---------0-----------|----0-----0---------0---------4-|
|--------------------------------|--------------------------------|

 |       |       |       |        |       |       |       |        
|--------------------------------|--------------------------------|
|--------------------------------|------2-------2-----------------|
|2-----2-------2-2-------2-----2-|----2-----2-----0-------0-------|
|----2-----2---------2-----------|0-------------------0-----------|

 |       |       |       |        |       |       |       |        
|--------------------------------|------------------------0-------|
|0-----0-------0-----------------|----0-----0---------0-----------|
|----0-----0-----3-------3-----3-|--------------------------------|
|--------------------------------|3-----3-------3-3---------------|

 |       |       |       |        |       |       |       |        
|--------------------------------|--------------------------------|
|--------------------------------|--------------------1-------1---|
|3-----3-------3-3-------3-------|1-----3-----4-------------------|
|----3-----3---------3-----------|--------------------------------|

 |       |       |       |        |       |       |       |        
|--------------------------------|--------------------------------|
|3-------------------------------|0-----0-------0-0-------0-------|
|--------------------------------|----0-----0---------0-------3---|
|----------------1-------0-------|--------------------------------|

 |       |       |       |        |       |       |       |        
|------------------------5-------|------------------------7-------|
|--------------------5-----------|--------------------------------|
|----5-----5-----3-------------3-|4-------------4-5---------------|
|3-----3-------3-------------6---|------5---------------------3-5-|

 |       |       |       |        |       |       |       |        
|--------------------------------|--------------------------------|
|----------3---3-----------------|0-----0---0-----0---------------|
|1-----------1---0-------0-------|----0---------0---------3-------|
|--------------------------------|--------------------------------|

 |       |       |       |        |       |       |       |        
|------------------------3-----3-|--------------------------------|
|--------------------------------|--------------------------------|
|1-----1---1---1-1---------------|1-----1---1---1-1---1---1-----1-|
|--------------------------------|--------------------------------|

 |       |       |       |        |       |       |       |        
|--------------------------------|--------------------------------|
|--------------------------------|--------------0-----------------|
|1-----1---1---1-----------------|--------------------------------|
|----------------2-------2-------|3-----3---3-----3---3---3---3---|

 |       |       |       |        |       |       |       |        
|--------------------------------|--------------------------------|
|--------------0-1---1---1-------|3-----3---3-----3---3---3-------|
|--------------------------------|--------------------------------|
|2-----2---2---------------------|--------------1-----------------|

 |       |       |       |        |       |       |       |        
|--------------------------------|--------------------------------|
|3-----3---3-----3---3---3-------|--------------------1-------1---|
|--------------------------------|1-----3-----4-------------------|
|--------------1-----------------|--------------------------------|

 |       |       |       |        |       |       |       |        
|--------------------------------|--------------------------------|
|3-------------------------------|0-----0-------0-0-------0-----0-|
|------------------------4-------|----0-----0---------0-----------|
|--------------------------------|--------------------------------|

 |       |       |       |        |       |       |       |        
|--------------------------------|--------------------------------|
|0-----0-------0-0-------0---0---|--------------------------------|
|----0-----0---------0---------4-|2-----2-------2-2-------2-----2-|
|--------------------------------|----2-----2---------2-----------|

 |       |       |       |        |       |       |       |        
|--------------------------------|--------------------------------|
|------2-------2-----------------|0-----0-------0-----------------|
|----2-----2-----0-------0-------|----0-----0-----3-------3-----3-|
|0-------------------0-----------|--------------------------------|

 |       |       |       |        |       |       |       |        
|--------------------------------|--------------------------------|
|----0-----0---------------------|--------------------------------|
|--------------------------------|3-----3-------3-3-------3-------|
|3-----3-------3-3-------3-------|----3-----3---------3-----------|

 |       |       |       |        |       |       |       |        
|--------------------------------|--------------------------------|
|--------------------1-------1---|3---------------3---3---2---2---|
|1-----3-----4-------------------|--------------------------------|
|--------------------------------|--------------------------------|

 |       |       |       |        |       |       |       |        
|--------------------------------|--------------------------------|
|0-----0-------0-0-------0-----0-|0-----0-------0-0-------0-------|
|----0-----0---------0-----------|----0-----0---------0-----------|
|--------------------------------|--------------------------------|

 |       |       |       |        |       |       |       |        
|--------------------------------|--------------------------------|
|0-----0-------0-0-------0-----0-|0-----0-------0-0-------0-------|
|--------------------1-----------|----0-----0---------0-----------|
|----3-----3---------------------|--------------------------------|

 |       |       |       |        |       |       |       |        
|--------------------------------|--------------------------------|
|0-----0-------0-0-------0-----0-|0-----0-------0-0-------0-------|
|----0-----0---------0-----------|----0-----0---------0-----------|
|--------------------------------|--------------------------------|

 |       |       |       |        |       |       |       |        
|--------------------------------|--------------------------------|
|0-----0-------0-0-------0-----0-|0-----0-------0-0-------0-------|
|--------------------1-----------|----0-----0---------0-----------|
|----3-----3---------------------|--------------------------------|

 |       |       |       |        |       |       |       |        
|--------------------------------|--------------------------------|
|0-----0-------0-0-------0-----0-|0-----0-------0-0-------0-------|
|----0-----0---------0-----------|----0-----0---------0-----------|
|--------------------------------|--------------------------------|

 |       |       |       |        |       |       |       |        
|--------------------------------|--------------------------------|
|0-----0-------0-0-------0-----0-|0-----0-------0-0-------0-------|
|--------------------1-----------|----0-----0---------0-----------|
|----3-----3---------------------|--------------------------------|

 |       |       |       |        |       |       |       |        
|--------------------------------|--------------------------------|
|0-----0-------0-0-------0-----0-|0-----0-------0-0-------0-------|
|----0-----0---------0-----------|----0-----0---------0-----------|
|--------------------------------|--------------------------------|

 |       |       |       |        |       |       |       |        
|--------------------------------|--------------------------------|
|0-----0-------0-0-------0-----0-|0-----0-------0-0-------0-------|
|--------------------1-----------|----0-----0---------0-----------|
|----3-----3---------------------|--------------------------------|

 |       |       |       |        |       |       |       |        
|--------------------------------|--------------------------------|
|0-----0-------0-0-------0-----0-|0-----0-------0-0-------0-------|
|----0-----0---------0-----------|----0-----0---------0-----------|
|--------------------------------|--------------------------------|

 |       |       |       |        |       |       |       |        
|--------------------------------|--------------------------------|
|0-----0-------0-0-------0-----0-|0-----0-------0-0-------0-------|
|--------------------1-----------|----0-----0---------0-----------|
|----3-----3---------------------|--------------------------------|

 |       |       |       |        |       |       |       |        
|--------------------------------|--------------------------------|
|0-----0-------0-0-------0-----0-|0-----0-------0-0-------0-------|
|----0-----0---------0-----------|----0-----0---------0-----------|
|--------------------------------|--------------------------------|



Created with TablEdit http://www.tabledit.com/


............................................................
     
Добавлено: 20.06.2013
Другие материалы по этой песне:
  • Аккорды и текст

Страница создана 20.06.2013
http://primanota.ru/shadows/one-day-ill-fly-away-chords.htm
Привет, Гость.
Предлагаем пройти революционный курс по гитаре.
Подарок от PrimaNota.Ru, забирай!