PrimaNota.ru - самый крупный в мире бесплатный архив песенных текстов, аккордов, табулатур и нот


Royal Blood - Happy - бас-таба, видео

Регистрация Запомнить меня
Войти через:  Facebook Google Twitter Vk Yandex Mail.ru

Royal Blood - Happy - бас-таба, видео

Печатать
Просмотров: 142
-------------------------------------------------------------------------------
                             Happy - Royal Blood
-------------------------------------------------------------------------------

Here's a link to the song: https://www.youtube.com/watch?v=fO_8duA67J8

Tuning: Drop D

Intro:
G|---------------------|
D|-------10---10/12\10-|
A|---------------------|
D|--0-0-----0----------| x12

Verse:
G|----------------------------------|
D|--------------------10---10/12\10-|
A|----------------------------------|
D|-12\--(Drums)---0-0-----0---------| x4

Chorus:
G|-----------------------------------------------------------------|
D|-----------------------------------------------------------------|
A|-----------------------------------------------------------------|
D|-5-5-5-5-5-5-5-5-3-3-3-3-3-3-3-3-2-2-2-2-2-2-2-2-0-0-0-0-0-0-0-0-| x2

G|-----------------------------------------------------------------|
D|-----------------------------------------------------------------|
A|-----------------------------------------------------------------|
D|-5-5-5-5-5-5-5-5-8-8-8-8-8-8-8-8-2-2-2-2-2-2-2-2-0-0-0-0-0-0-0-0-| x1

G|-----------------------------------------------------------------|
D|-----------------------------------------------------------------|
A|-----------------------------------------------------------------|
D|-5-5-5-5-5-5-5-5-3-3-3-3-3-3-3-3-2-2-2-2-2-2-2-2-0-0-0-0-0-0-0-0-| x1

Pre-Verse (I'm not too sure what you call it)
G|---------------------|
D|-------10---10/12\10-|
A|---------------------|
D|--0-0-----0----------| x4

Verse:
G|----------------------------------|
D|--------------------10---10/12\10-|
A|----------------------------------|
D|-12\--(Drums)---0-0-----0---------| x4

Chorus:
G|-----------------------------------------------------------------|
D|-----------------------------------------------------------------|
A|-----------------------------------------------------------------|
D|-5-5-5-5-5-5-5-5-3-3-3-3-3-3-3-3-2-2-2-2-2-2-2-2-0-0-0-0-0-0-0-0-| x2

G|-----------------------------------------------------------------|
D|-----------------------------------------------------------------|
A|-----------------------------------------------------------------|
D|-5-5-5-5-5-5-5-5-8-8-8-8-8-8-8-8-2-2-2-2-2-2-2-2-0-0-0-0-0-0-0-0-| x1

G|-----------------------------------------------------------------|
D|-----------------------------------------------------------------|
A|-----------------------------------------------------------------|
D|-5-5-5-5-5-5-5-5-3-3-3-3-3-3-3-3-2-2-2-2-2-2-2-2-0-(Let Ring)----| x1

Bridge:
G|----------------------------------------------------------|
D|-----15-12-15----14-11-14-11------------------------------|
A|----------------------------------------------------------|
D|-0-0----------0-0------------(4x)-12-12-12-12-12-12-12-12-|

Chorus:
G|-----------------------------------------------------------------|
D|-----------------------------------------------------------------|
A|-----------------------------------------------------------------|
D|-5-5-5-5-5-5-5-5-3-3-3-3-3-3-3-3-2-2-2-2-2-2-2-2-0-0-0-0-0-0-0-0-| x2

G|-----------------------------------------------------------------|
D|-----------------------------------------------------------------|
A|-----------------------------------------------------------------|
D|-5-5-5-5-5-5-5-5-8-8-8-8-8-8-8-8-2-2-2-2-2-2-2-2-0-0-0-0-0-0-0-0-| x1

G|-----------------------------------------------------------------|
D|-----------------------------------------------------------------|
A|-----------------------------------------------------------------|
D|-5-5-5-5-5-5-5-5-3-3-3-3-3-3-3-3-2-2-2-2-2-2-2-2-2-2-2-2-2-2-2-2-| x1

G|---------------------|
D|-------10---10/12\10-|
A|---------------------|
D|--0-0-----0----------|x8

| /  slide up
| \  slide down
| h  hammer-on
| p  pull-off
| ~  vibrato
| +  harmonic
| x  Mute note
===============================================================================
Добавлено: 07.04.2015
Другие материалы по этой песне:
  • Аккорды и текст

Страница создана 07.04.2015
http://primanota.ru/royal-blood/happy-chords.htm
Привет, Гость.
Предлагаем пройти революционный курс по гитаре.
Подарок от PrimaNota.Ru, забирай!