PrimaNota.ru - самый крупный в мире бесплатный архив песенных текстов, аккордов, табулатур и нот


Royal Blood - Hook Line And Sinker - бас-таба, видео

Регистрация Запомнить меня
Войти через:  Facebook Google Twitter Vk Yandex Mail.ru

Royal Blood - Hook Line And Sinker - бас-таба, видео

Печатать
Просмотров: 73
Rough tab of the unreleased Royal Blood song 'Hook, Line and Sinker' performed at the Reading Festival 2015.

Played in Drop D tuning.

Tabbed by Thomas Govern




(/) Slide Up  (\) Slide Down  (h) Hammer On  (p) Pull Off  (b) Bend (r) Release (v) Vibrato

Intro:

G|-----------------------------|-----------------------------|
D|-----------------------------|-----------------------------|
A|-----------------------------|--5p4p3--5p4p3--5p4p3p0-3-5--| x2
D|--5p4p3--5p4p3--5p4p3p0-3-5--|-----------------------------|

Verse:

G|-----7--5--7--|     |-----7--5--7--5-----5-----|--
D|--------------|     |-----------------7-----7--|--
A|--------------| x2  |--------------------------|--
D|--0-----------|     |--0-----------------------|--

Chorus:

G|--------2\5---------------------------------------------------------------------|--
D|-------------5--3--------5--3--7--5--3--5---------------------------------------|--
A|-------------------------------------------5--3--3--3--2------------------------|--
D|--0--0-------------0--0-----------------------------------5--5--5h3--5h3--0--0--|--
Добавлено: 29.03.2016
Другие материалы по этой песне:

Страница создана 29.03.2016
http://primanota.ru/royal-blood/hook-line-and-sinker-chords.htm
Привет, Гость.
Предлагаем пройти революционный курс по гитаре.
Подарок от PrimaNota.Ru, забирай!