PrimaNota.ru - самый крупный в мире бесплатный архив песенных текстов, аккордов, табулатур и нот


Royal Blood - Loose Change - таба, бас-таба, видео

Регистрация Запомнить меня
Войти через:  Facebook Google Twitter Vk Yandex Mail.ru

Royal Blood - Loose Change - таба, бас-таба, видео

Печатать
Просмотров: 368
Tuning:DADGBe

This song is probably actually played in standard tuning, however it is possible to play in drop D which I 
find convenient because a few other Royal Blood songs are in drop D and it means you don't have to change
tuning if you learn to play it the song in drop D.
If you'd prefer to learn it in standard tuning I'd recommend checking out the bass tab: 
(http://tabs.ultimate-guitar.com/r/royal_blood/loose_change_btab.htm)
and playing that on a 6-string.


Intro 

e|------------------------------------------------------------------|
B|------------------------------------------------------------------|
G|------------------------------------------------------------------|
D|--------------------11---9----------------------------------------|
A|----------------7-9--------11-7--9---9--------12-12-12-12-11-11---|
D|-11--11------11-------------------------------------------------7-|

e|------------------------------------------------------------------|
B|------------------------------------------------------------------|
G|------------------------------------------------------------------|
D|--------------------11---9----------------------------------------|
A|----------------7-9--------11-7--9---9--------12-12-12-12-11-11---|
D|-11--11------11-------------------------------------------------7-|

First Verse

e|------------------------------------------------------------------|
B|------------------------------------------------------------------|
G|------------------------------------------------------------------|
D|--------------------11---9----------------------------------------|
A|----------------7-9--------11-7--9---9--------12-12-12-12-11-11---|
D|-11--11------11-------------------------------------------------7-|

e|------------------------------------------------------------------|
B|------------------------------------------------------------------|
G|------------------------------------------------------------------|
D|--------------------11---9----------------------------------------|
A|----------------7-9--------11-7--9---9--------12-12-12-12-11-11---|
D|-11--11------11-------------------------------------------------7-|

e|------------------------------------------------------------------|
B|------------------------------------------------------------------|
G|------------------------------------------------------------------|
D|--------------------11---9----------------------------------------|
A|----------------7-9--------11-7--9---9--------12-12-12-12-11-11---|
D|-11--11------11-------------------------------------------------7-|

e|------------------------------------------------------------------|
B|------------------------------------------------------------------|
G|------------------------------------------------------------------|
D|--------------------11---9----------------------------------------|
A|----------------7-9--------11-7--9---9--------12-12-12-12-11-11---|
D|-11--11------11-------------------------------------------------7-|

e|-----------------------------------------|
B|-----------------------------------------|
G|-----------------------------------------|
D|-----------------------------------------|
A|-12----------------14--------------------|
D|-----------------------------------------|


e|------------------------------------------------------------------|
B|------------------------------------------------------------------|
G|------------------------------------------------------------------|
D|--------------------11---9----------------------------------------|
A|----------------7-9--------11-7--9---9--------12-12-12-12-11-11---|
D|-11--11------11-------------------------------------------------7-|

e|-----------------------------------------------------------|
B|-----------------------------------------------------------|
G|-----------------------------------------------------------|
D|--------------------11--14-13------------------------------|
A|----------------7-9-----------13-15-----------7---7-9---9-9|
D|-11--11------11--------------------~15\--------------------|

Second verse

e|------------------------------------------------------------------|
B|------------------------------------------------------------------|
G|------------------------------------------------------------------|
D|--------------------11---9----------------------------------------|
A|----------------7-9--------11-7--9---9--------12-12-12-12-11-11---|
D|-11--11------11-------------------------------------------------7-|

e|------------------------------------------------------------------|
B|------------------------------------------------------------------|
G|------------------------------------------------------------------|
D|--------------------11---9----------------------------------------|
A|----------------7-9--------11-7--9---9--------12-12-12-12-11-11---|
D|-11--11------11-------------------------------------------------7-|

e|------------------------------------------------------------------|
B|------------------------------------------------------------------|
G|------------------------------------------------------------------|
D|--------------------11---9----------------------------------------|
A|----------------7-9--------11-7--9---9--------12-12-12-12-11-11---|
D|-11--11------11-------------------------------------------------7-|

e|------------------------------------------------------------------|
B|------------------------------------------------------------------|
G|------------------------------------------------------------------|
D|--------------------11---9----------------------------------------|
A|----------------7-9--------11-7--9---9--------12-12-12-12-11-11---|
D|-11--11------11-------------------------------------------------7-|

Bridge

e|-----------------------------------------------------------------------|
B|-----------------------------------------------------------------------|
G|-----------------------------------------------------------------------|
D|-----------------------------------------------------------------------|
A|-----------------------------------------------------------------------|
D|-11-------------------------------11-----------------------------------|

e|-----------------------------------------------------------------------|
B|-----------------------------------------------------------------------|
G|-----------------------------------------------------------------------|
D|-----------------------------------------------------------------------|
A|-----------------------------------------------------------------------|
D|-11-------------------------------11-----------------------------------|

Third Verse

e|-----------------------------------------------------------------------|
B|-----------------------------------------------------------------------|
G|--------9-8-----------------------------------9----------------9-------|
D|------------9-11---9-11-9-11-9-----------------------------------------|
A|-------------------------------11-9-9-9-9---9---7--7-7-9-9-9-9---9-----|
D|-11--11----------------------------------------------------------------|

e|-----------------------------------------------------------------------|
B|-----------------------------------------------------------------------|
G|--------9-8-----------------------------------9----------------9-------|
D|------------9-11---9-11-9-11-9-----------------------------------------|
A|-------------------------------11-9-9-9-9---9---7--7-7-9-9-9-9---9-----|
D|-11--11----------------------------------------------------------------|

e|-----------------------------------------------------------------------|
B|-----------------------------------------------------------------------|
G|--------9-8-----------------------------------9----------------9-------|
D|------------9-11---9-11-9-11-9-----------------------------------------|
A|-------------------------------11-9-9-9-9---9---7--7-7-9-9-9-9---9-----|
D|-11--11----------------------------------------------------------------|

e|-----------------------------------------------------------------------|
B|-----------------------------------------------------------------------|
G|--------9-8-----------------------------------9----------------9-------|
D|------------9-11---9-11-9-11-9-----------------------------------------|
A|-------------------------------11-9-9-9-9---9---7--7-7-9-9-9-9---9-----|
D|-11--11----------------------------------------------------------------|

e|-----------------------------------------------------------------------|
B|-----------------------------------------------------------------------|
G|--------9-8-----------------------------------9----------------9-------|
D|------------9-11---9-11-9-11-9-----------------------------------------|
A|-------------------------------11-9-9-9-9---9---7--7-7-9-9-9-9---9-----|
D|-11--11----------------------------------------------------------------|

e|-----------------------------------------------------------------------|
B|-----------------------------------------------------------------------|
G|--------9-8-----------------------------------9----------------9-------|
D|------------9-11---9-11-9-11-9-----------------------------------------|
A|-------------------------------11-9-9-9-9---9---7--7-7-9-9-9-9---9-----|
D|-11--11----------------------------------------------------------------|

e|-----------------------------------------------------------------------------------------------------|
B|-----------------------------------------------------------------------------------------------------|
G|-----------------------------------------------------------------------------------------------------|
D|-----------------------------------------------------------------------------------------------------|
A|--12--12-12-12-12-12-12-12-9--9-9-9-9-9-9-9----------------------------------------------------------|
D|--------------------------------------------11-11-11-11-11-11-11-11-11-11-11-11-11-11-11-11-11-11-11-|

e|-----------------------------------------------------------------------------------------------------|
B|-----------------------------------------------------------------------------------------------------|
G|-----------------------------------------------------------------------------------------------------|
D|-----------------------------------------------------------------------------------------------------|
A|--12--12-12-12-12-12-12-12-9--9-9-9-9-9-9-9----------------------------------------------------------|
D|--------------------------------------------11-11-11-11-11-11-11-11-11-11-11-11-11-11-11-11-11-11-11-|

e|-----------------------------------------------------------------------------------------------------|
B|-----------------------------------------------------------------------------------------------------|
G|-----------------------------------------------------------------------------------------------------|
D|-----------------------------------------------------------------------------------------------------|
A|--12--12-12-12-12-12-12-12-9--9-9-9-9-9-9-9----------------------------------------------------------|
D|--------------------------------------------11-11-11-11-11-11-11-11-11-11-11-11-11-11-11-11-11-11-11-|

e|-----------------------------------------------------------------------------------------------------|
B|-----------------------------------------------------------------------------------------------------|
G|-----------------------------------------------------------------------------------------------------|
D|-----------------------------------------------------------------------------------------------------|
A|--12--12-12-12-12-12-12-12-9--9-9-9-9-9-9-9----------------------------------------------------------|
D|--------------------------------------------11-11-11-11-11-11-11-11-11-11-11-11-11-11-11-11-11-11-11-|

Outro

e|-----------------------------------------------------------|
B|-----------------------------------------------------------|
G|-------9-8-------------------------------------------------|
D|-----------9-11---9-11-9-11-9------------------------------|
A|------------------------------11-9-9-9-9--9----------------|
D|-11-11-----------------------------------------------------|
Добавлено: 07.04.2015
Другие материалы по этой песне:

Страница создана 01.10.2014
http://primanota.ru/royal-blood/loose-change-chords.htm
Привет, Гость.
Предлагаем пройти революционный курс по гитаре.
Подарок от PrimaNota.Ru, забирай!