PrimaNota.ru - самый крупный в мире бесплатный архив песенных текстов, аккордов, табулатур и нот


Royal Blood - One Trick Pony - таба, видео

Регистрация Запомнить меня
Войти через:  Facebook Google Twitter Vk Yandex Mail.ru

Royal Blood - One Trick Pony - таба, видео

Печатать
Просмотров: 366
Уроки эстрадного вокала в Санкт-Петербурге
-------------------------------------------------------------------------------
         ONE TRICK PONY (Ten Tonne Skeleton Single B Side) - Royal Blood
-------------------------------------------------------------------------------
Tabbed by: Shaun
E-mail:shaunus123@hotmail.com

Tuning:Drop D tuning, as per usual with Royal Blood this is originally played on bass guitar but with octave 
pedals and others. I've instead tabbed it out as a standard guitar with the 'correct' octaves for certain notes
:)
    Lightly distorted/played
 
Intro:  
 
    Let ring ----------------------------------------------------------------|
e|---------------------------------------------------------------------------|
B|---------------------------------------------------------------------------|
G|------12\------------5-3/-----7\5/7---5\3/5---3p2p0-/5\-/3\0---------------|Feedback into 
D|----12\--------5\3-0--------------------------------/5\-/3\0---------------|   next part
A|---------------------------------------------------------------------------|
D|---------------------------------------------------------------------------|
     
    Heavily distorted/played

Main Riff:

e|---------------------------------------------------------------------------|
B|---------------------------------------------------------------------------|
G|-------12\10/12-----12\10/12\10-----12\10/12-----121214b-------------------|
D|---5-5----------5-5-------------5-5----------5-5---------------------------|     x2
A|---5-5----------5-5-------------5-5----------5-5---------------------------|
D|---5-5----------5-5-------------5-5----------5-5---------------------------|

Verse 1:
                     (10s)
e|---------------------------------------------------------------------------|
B|---------------------------------------------------------------------------|
G|----------------------------15b--------------------------------------------|
D|---10-1010---8---10-10101010--------10-1010---8---10-1010101010/11\10\8----|
A|---10-1010---8---10-10101010--------10-1010---8---10-1010101010/11\10\8----|
D|---10-1010---8---10-10101010--------10-1010---8---10-1010101010/11\10\8----|

e|---------------------------------------------------------------------------|
B|---------------------------------------------------------------------------|
G|---------------------------------------------------------------------------|
D|---5-55---8---5-5555--xxxx---5-55---8---5-5558p55--------------------------|
A|---5-55---8---5-5555--xxxx---5-55---8---5-5558p55--------------------------|
D|---5-55---8---5-5555--xxxx---5-55---8---5-5558p55--------------------------|

e|---------------------------------------------------------------------------|
B|---------------------------------------------------------------------------|
G|----------------------------15b--------------------------------------------|
D|---10-1010---8---10-10101010--------10-1010---8---10-1010101010/11\10\8----|
A|---10-1010---8---10-10101010--------10-1010---8---10-1010101010/11\10\8----|
D|---10-1010---8---10-10101010--------10-1010---8---10-1010101010/11\10\8----|

e|---------------------------------------------------------------------------|
B|---------------------------------------------------------------------------|
G|---------------------------------------------------------------------------|
D|---5-55---8---5-5555---------5-55---8---5-5558p55--------------------------|
A|---5-55---8---5-5555---------5-55---8---5-5558p55--------------------------|
D|---5-55---8---5-5555---------5-55---8---5-5558p55--------------------------|

Chorus 1:

e|---------------------------------------------------------------------------|
B|---------------------------------------------------------------------------|
G|---------------------------------------------------------------------------|
D|---------------------------------------------------------------------------|
A|---------------------------------------------------------------------------|
D|---10--\3-5--\3-10--\3-5-x3-10--\3-5--\3-10\\-0-0-3p0-3p0--1212121212\0----|


Main Riff:


e|---------------------------------------------------------------------------|
B|---------------------------------------------------------------------------|
G|-------12\10/12-----12\10/12\10-----12\10/12-----121214b-------------------|
D|---5-5----------5-5-------------5-5----------5-5---------------------------|
A|---5-5----------5-5-------------5-5----------5-5---------------------------|
D|---5-5----------5-5-------------5-5----------5-5---------------------------|

Verse 2:
                     (10s)
e|---------------------------------------------------------------------------|
B|---------------------------------------------------------------------------|
G|----------------------------15b--------------------------------------------|
D|---10-1010---8---10-10101010--------10-1010---8---10-1010101010/11\10\8----|
A|---10-1010---8---10-10101010--------10-1010---8---10-1010101010/11\10\8----|
D|---10-1010---8---10-10101010--------10-1010---8---10-1010101010/11\10\8----|

e|---------------------------------------------------------------------------|
B|---------------------------------------------------------------------------|
G|---------------------------------------------------------------------------|
D|---5-55---8---5-5555-------------5-55---8---5-5558p55----------------------|
A|---5-55---8---5-5555-------------5-55---8---5-5558p55----------------------|
D|---5-55---8---5-5555--17171717---5-55---8---5-5558p55----------------------|

e|---------------------------------------------------------------------------|
B|---------------------------------------------------------------------------|
G|----------------------------15b--------------------------------------------|
D|---10-1010---8---10-10101010--------10-1010---8---10-1010101010/11\10\8----|
A|---10-1010---8---10-10101010--------10-1010---8---10-1010101010/11\10\8----|
D|---10-1010---8---10-10101010--------10-1010---8---10-1010101010/11\10\8----|

e|---------------------------------------------------------------------------|
B|---------------------------------------------------------------------------|
G|---------------------------------------------------------------------------|
D|---5-55---8---5-5555---------5-55---8---5-5558p55--------------------------|
A|---5-55---8---5-5555---------5-55---8---5-5558p55--------------------------|
D|---5-55---8---5-5555---------5-55---8---5-5558p55--------------------------|

Chorus 2:

e|---------------------------------------------------------------------------|
B|---------------------------------------------------------------------------|
G|---------------------------------------------------------------------------|
D|---------------------------------------------------------------------------|
A|---------------------------------------------------------------------------|
D|---10--\3-5--\3-10--\3-5-x3-10--\3-5--\3-10\\-0000000000/12121212121212----|   <(0s and 12s unspecified)


  Solo/Bridge: 
 
e|---18b---------------------18b--------------------|
B|-------20-18201820--182018-----20\----------------|
G|------------------------------------19-1817--15---|
D|--------------------------------------------------|
A|--------------------------------------------------|
D|--------------------------------------------------|
                                                          -3--3-
e|----------------------------------------------------------------------------------------------|
B|----------------------------------------------------------------------------------------------|
G|-----------------------------------------------------------345--------------------------------|
D|--------------------------------------------------------345-----------------------------------|
A|----------------------------------------------------------------------------------------------|
D|---10-10-810810--10-10-810810/11\108108---------5-5-8-55--------5-5-8-5858-0000000121212121212|
                           
                                                                        ^(0s and 12s unspecified)


Verse 3:

e|---------------------------------------------------------------------------|
B|---------------------------------------------------------------------------|
G|----------------------------15b--------------------------------------------|
D|---10-1010---8---10-10101010--------10-1010---8---10-1010101010/11\10\8----|
A|---10-1010---8---10-10101010--------10-1010---8---10-1010101010/11\10\8----|
D|---10-1010---8---10-10101010--------10-1010---8---10-1010101010/11\10\8----|


e|-------------------------------------|
B|-------------------------------------|
G|-------------------------------------|
D|--drum fill--------------------------|
A|-------------------------------------|
D|-------------5-5-8-55/17-5-5-8-5858--|

e|---------------------------------------------------------------------------|
B|---------------------------------------------------------------------------|
G|----------------------------15b--------------------------------------------|
D|---10-1010---8---10-10101010--------10-1010---8---10-1010101010/11\10\8----|
A|---10-1010---8---10-10101010--------10-1010---8---10-1010101010/11\10\8----|
D|---10-1010---8---10-10101010--------10-1010---8---10-1010101010/11\10\8----|

e|----------------------------------------|
B|----------------------------------------|
G|----------------------------------------|
D|----------------------------------------|
A|----------------------------------------|
E|0-0-0-0-0-0-0-12\-----------------------|

Outro:

e|---------------------------------------------------------------------------|
B|---------------------------------------------------------------------------|
G|-------12\10/12-----12\10/12\10-----12\10/12-----121214b-------------------|
D|---5-5----------5-5-------------5-5----------5-5---------------------------|     
A|---5-5----------5-5-------------5-5----------5-5---------------------------|
D|---5-5----------5-5-------------5-5----------5-5---------------------------|

e|---------------------------------------------------------------------------|
B|---------------------------------------------------------------------------|
G|-------12\10/12-----15-12-10--------12\10/12-------------------------------|
D|---5-5----------5-5-------------5-5----------------5-----------------------|     
A|---5-5----------5-5-------------5-5----------------5-----------------------|
D|---5-5----------5-5-------------5-5-----------17-\-5-----------------------|




************************************

| /   slide up
| \   slide down
| h   hammer-on
| p   pull-off
| ~   vibrato
| +   harmonic
| x   Mute note
| b   Bend
| pb  Pre-bend
| br  Bend release
| pbr Pre-bend release
| brb Bend release bend

************************************
Добавлено: 02.07.2015
Другие материалы по этой песне:
  • Аккорды и текст

Страница создана 02.07.2015
http://primanota.ru/royal-blood/one-trick-pony-chords.htm
Привет, Гость.
Предлагаем пройти революционный курс по гитаре.
Подарок от PrimaNota.Ru, забирай!