PrimaNota.ru - самый крупный в мире бесплатный архив песенных текстов, аккордов, табулатур и нот


Royal Blood - Come On Over - таба, бас-таба, драм-таба, видео

Регистрация Запомнить меня
Войти через:  Facebook Google Twitter Vk Yandex Mail.ru

Royal Blood - Come On Over - таба, бас-таба, драм-таба, видео

Печатать
Просмотров: 1105
Новый альбом группы 'Черный Кузнец' по культовому сериалу 'Сверхъестественное'!
-------------------------------------------------------------------------------
                             Come On Over - Royal Blood
-------------------------------------------------------------------------------
Tabbed by: Micah Hobson
E-mail: shadowbreakmusic@gmail.com

Tuning: Drop D

Fair warning; An octave pedal is gonna be the only way to get the sound you want(might i suggest Boss OC-3?).
I also have the single note sections (fast parts of the song) <= in these.
Enjoy!

[Intro]
e|---------------------------------------------------------------------------|
B|---------------------------------------------------------------------------|
G|---------------------------------------------------------------------------|
D|---------------------------------------------------------------------------|
A|---------------------------------------------------------------------------|
D|-0-15-0-12-0-10-0-7-0-10-0-12-0-10-0-7-0-10-0-12-0-10-0-7-0-6-0-5-0-3------|

e|---------------------------------------------------------------------------|
B|---------------------------------------------------------------------------|
G|---------------------------------------------------------------------------|
D|---------------------------------------------------------------------------|
A|---------------------------------------------------------------------------|
D|-0-15-0-12-0-10-0-7-0-10-0-12-0-10-0-7-0-10-0-7-0h3-0h3--------------------|

[Pre-Verse] x2
e|----------------------------------------------------------------------|
B|----------------------------------------------------------------------|
G|----------------------------------------------------------------------|
D|----------------------------------------------------------------------|
A|----------------------------------------------------------------------|
D|-0-15-0-12-0-10-0-7-0-10-0-12-0-10-0-7-0-10-0-12-0-10-0-7-0-6-0-5-0-3-|

[Verse] x2
e|-----------------------------------------------------------------|
B|-----------------------------------------------------------------|
G|-----------------------------------------------------------------|
D|-----------------------------------------------------------------|
A|-----------------------------------------------------------------|
D|-0-0-0-0-0-0-0-0-0-0-0-0-0-0-0-0-0-0-0-0-0-0-0-0-0-0-0-0-0-0-0-0-|

[Chorus]
e|------------------------------------------------------------------|
B|------------------------------------------------------------------|
G|-----b12---------------------------b12----------------------------|
D|------------------------------------------------------------------|
A|----(b10)-------------------------(b10)---------------------------|
D|-0-0-----0-0--3-10-10-10p7-7p6-0-0------0-0--3-10-10-12-7-7p6-0-0-|

e|------------------------------------------------------------------|
B|------------------------------------------------------------------|
G|-----b12---------------------------b12----------------------------|
D|------------------------------------------------------------------|
A|----(b10)-------------------------(b10)---------------------------|
D|-0-0-----0-0--3-10-10-10p7-7p6-0-0------0-0--3-10-10-12-7-7p6-0-0-|

[Post-Chorus]
e|--------------------------------------------------------------------|
B|--------------------------------------------------------------------|
G|--------------------------------------------------------------------|
D|--------------------------------------------------------------------|
A|--------------------------------------------------------------------|
D|-0-15-0-12-0-10-0-7-0-10-0-12-0-10-0-7-0-10-0-12-0-10-0-7-0h3b-0h3b-|

[Verse]
e|--------------------------------------------------------------------------------------|
B|--------------------------------------------------------------------------------------|
G|--------------------------------(14p12------------------------------------------------|
D|---------------------------------------15p14h15p14p12)--------------------------------|
A|--------------------------------------------------------------------------------------|
D|-0-0-0-0-0-0-0-0-0-0-0-0-0-0-0-0----------------------0-0-0-0-0-0-0-0-0-0-0-0-0-0-0-0-|

[Chorus]
e|------------------------------------------------------------------|
B|------------------------------------------------------------------|
G|-----b12---------------------------b12----------------------------|
D|------------------------------------------------------------------|
A|----(b10)-------------------------(b10)---------------------------|
D|-0-0-----0-0--3-10-10-10p7-7p6-0-0------0-0--3-10-10-12-7-7p6-0-0-|

e|------------------------------------------------------------------|
B|------------------------------------------------------------------|
G|-----b12---------------------------b12----------------------------|
D|------------------------------------------------------------------|
A|----(b10)-------------------------(b10)---------------------------|
D|-0-0-----0-0--3-10-10-10p7-7p6-0-0------0-0--3-10-10-12-7-7p6-0-0-|

[Bridge]
e|-------------------------------------------------------------------|
B|-------------------------------------------------------------------|
G|-------------------------------------------------------------------|
D|-------------------------------------------------------------------|
A|-------------------------------------------------------------------|
D|-8-8-8-8-8-8-8-8-5-5-5-5-5-5-5-5-8-8-8-8-8-8-8-8-5-5-5-5-3-3-3-2-0-|

(PALM MUTE)
e|-------------------------------------------------------------------|
B|-------------------------------------------------------------------|
G|-------------------------------------------------------------------|
D|-------------------------------------------------------------------|
A|-------------------------------------------------------------------|
D|-8-8-8-8-8-8-8-8-8-8-8-8-8-8-8-8-5-5-5-5-5-5-5-5-5-5-5-5-5-5-5-5---|

[Solo]
e|---------------------------------------------------------------------------------|
B|---------------------------------------------------------------------------------|
G|-----b12---------------------------b12-----12p10h12p10---------------------------|
D|-------------------------------------------------------12------------------------|
A|---------------------------------------------------------------------------------|
D|-0-0-----0-0--3-10-10-10p7-7p6-0-0-----0-0----------------10--10-10-10-11--11-11-|

[Chorus]
e|------------------------------------------------------------------|
B|------------------------------------------------------------------|
G|-----b12---------------------------b12----------------------------|
D|------------------------------------------------------------------|
A|----(b10)-------------------------(b10)---------------------------|
D|-0-0-----0-0--3-10-10-10p7-7p6-0-0------0-0--3-10-10-12-7-7p6-0-0-|

e|------------------------------------------------------------------|
B|------------------------------------------------------------------|
G|-----b12---------------------------b12----------------------------|
D|------------------------------------------------------------------|
A|----(b10)-------------------------(b10)---------------------------|
D|-0-0-----0-0--3-10-10-10p7-7p6-0-0------0-0--3-10-10-12-7-7p6-0-0-|

[Outro] x2
e|----------------------------------------------------------------------|
B|----------------------------------------------------------------------|
G|----------------------------------------------------------------------|
D|----------------------------------------------------------------------|
A|----------------------------------------------------------------------|
D|-0-15-0-12-0-10-0-7-0-10-0-12-0-10-0-7-0-10-0-12-0-10-0-7-0-6-0-5-0-3-|

e|----------------------------------------------------------------------|
B|----------------------------------------------------------------------|
G|----------------------------------------------------------------------|
D|----------------------------------------------------------------------|
A|----------------------------------------------------------------------|
D|-0-15-0-12-0-10-0-7-0-10-0-12-0-10-0-7-0-10-0-7-0h3-0h3---------------|

Thanks for reading this tab! Remember to rate and comment and if you have any 
suggestions feel free to add 'em. I'll make sure to discuss them and improve 
the tab whenever possible.

************************************

| /   slide up
| \   slide down
| h   hammer-on
| p   pull-off
| ~   vibrato
| +   harmonic
| x   Mute note
| m   Palm Mute
| b   Bend
| pb  Pre-bend
| br  Bend release
| pbr Pre-bend release
| brb Bend release bend
| (_) Speed Section

************************************
Добавлено: 08.03.2018
Другие материалы по этой песне:

Страница создана 17.07.2014
http://primanota.ru/royal-blood/come-on-over-chords.htm
Привет, Гость.
Предлагаем пройти революционный курс по гитаре.
Подарок от PrimaNota.Ru, забирай!