PrimaNota.ru - самый крупный в мире бесплатный архив песенных текстов, аккордов, табулатур и нот


Royal Blood - Love And Leave It Alone - бас-таба, видео

Регистрация Запомнить меня
Войти через:  Facebook Google Twitter Vk Yandex Mail.ru

Royal Blood - Love And Leave It Alone - бас-таба, видео

Печатать
Просмотров: 325
Royal Blood - Love And Leave It Alone
Tuning: Drop D (DADGBE)
Note: this may be performed in full step down (D G C F) but it can be played in drop D fine

Verse:
G|---------------------------------------------|
D|---------------------------------------------|
A|---------------------------------------------|
D|-//5h8p5\\-//3h5p3\\-//10h13p10\\-//8h10p8\\-|

Pre-chorus:
G|-----------------------------------|
D|-----------------------------------|
A|-----------------------------------|
D|-1-1--1-1--1-1--1-1--1-1--1-1--1-1-|

Chorus:
G|------------------------------------|---------------------------------|
D|------------------------------------|---------------------------------|
A|------------------------------------|-------------------------1h33333-|
D|-5-5h8p5-3-3h5p3-1-1--1-1--1-1--1-1-|5-5h8p5-3-3h5p3-1-1--1-1---------|

Pre-verse:
G|---------------|
D|---------------|
A|-1-----1-0-----|
D|-------------6-|

Verse 2:
G|------------------------------------|
D|------------------------------------|
A|------------------------------------|
D|-5-5-5----5-5-5----5-5-3-5----5-5-5-|

After second chorus:
G|------|
D|------|
A|------|
D|-0~---|

Solo:
G|-------------------------------------------------------|
D|-------------------------------------------------------|
A|-------------------------------------------------------|
D|-10h13p10\\--drums---8h10p8\\--drums--7h10p7\\-6h9p6\\-|

G|------------12-15-12h15p12---------12----------------------|
D|-------------------------------------12\\------------------|
A|-----------------------------------------------------------|
D|-10h13p10\\----------------8h10p8\\-------7h10p7\\-6h9p6\\-|

G|------------18b-15v\\-------------12-----------------------|
D|------------------------------------12-11------------------|
A|-----------------------------------------------------------|
D|-10h13p10\\----------------8h10p8\\-------7h10p7\\-6h9p6\\-|

Bridge (another day goes by...):
G|--------------------------------------------------|
D|--------------------------------------------------|
A|--------------------------------------------------|
D|-5~~~---------------------------------------------|etc.

Pre-chorus variation:
G|-----------------------------------|
D|-----------------------------------|
A|-----------------------------------|
D|-1-1--1-1--1-1--1-1--1-1--1-1--x-x-|

Final chorus:
G|------------------------------------|---------------------------------|
D|------------------------------------|---------------------------------|
A|------------------------------------|-------------------------1h33333-|
D|-5-5h8p5-3-3h5p3-1-1--1-1--1-1--1-1-|5-5h8p5-3-3h5p3-1-1--1-1---------|

G|------------------------------------|---------------------------------|
D|------------------------------------|---------------------------------|
A|------------------------------------|-------------------------1h33333-|
D|-5-5h8p5-3-3h5p3-1-1--1-1--1-1--1-1-|5-5h8p5-3-3h5p3-1-1--1-1---------|

G|------------------------------------|-----------------------------------|
D|------------------------------------|-----------------------------------|
A|------------------------------------|-----------------------------------|
D|-5h8p5-3h5p3-//10h13p10\\//8h10p8\\-|5h8p5-3h5p3-//10h13p10\\//8h10p8\\-|

G|------------------------------------|-----------------------------------|
D|------------------------------------|-----------------------------------|
A|------------------------------------|-----------------------------------|
D|-5h8p5-3h5p3-//10h13p10\\//8h10p8\\-|5h8p5-3h5p3-//10h13p10\\//8h10p8\\-|

Outro (play verse riff a few times, adjust rhythm then play this:
G|------------------------------------------------------------|
D|------------------------------------------------------------|
A|------------------------------------------------------------|
D|-//5h8p5\\-//3h5p3\\-//10h13p10\\-//8h10p8\\-7h10p7-6h9p6\\-|
Добавлено: 31.08.2015
Вам также может быть интересно:
Другие материалы по этой песне:
  • Аккорды и текст

Страница создана 31.08.2015
http://primanota.ru/royal-blood/love-and-leave-it-alone-chords.htm
Привет, Гость.
Предлагаем пройти революционный курс по гитаре.
Подарок от PrimaNota.Ru, забирай!