PrimaNota.ru - самый крупный в мире бесплатный архив песенных текстов, аккордов, табулатур и нот


Robben Ford - Cannonball Shuffle - таба, видео

Регистрация Запомнить меня
Войти через:  Facebook Google Twitter Vk Yandex Mail.ru

Robben Ford - Cannonball Shuffle - таба, видео

Печатать
Просмотров: 130
Robben Ford - Cannonball Shuffle
Tab by aldo alain

|---------0----------------------------------------5--5----5-5----------------|
|---------0---3/5-8p5----------------------------------------------5----------|
|-2brp0---------------8p7p5----7---5--5b-----------------------------7--------|
|-------2-------------------7----7-------7--10p7\5----4--3---2----------------|
|---------------------------------------------------------------/7------------|
|-----------------------------------------------------------------------------|

|----------------------------------------------------------------------8-5----|
|-8h10---8-5--------5---------8h10---8-5----------------8h10---7--6\5------5--|
|-9------9-5--------5h6-------9------9-5----------------9------7--6\5--------7|
|------7-----7--5h7-------7-7------7-----7--5-7-5---7-7------7-7--6\5---------|
|-----------------------------------------------------------------------------|
|-----------------------------------------------------------------------------|

|-----------------------------------------------------------------------------|
|------8h10---8-5--------5----------------5----------------------5------------|
|-5b---9------9-5--------5h6-----5-7-5-7b---7b-7rp5---------5-7b---7b-7rp5----|
|----7------7-----7--5-7-------7--------------------7-----7----------------7--|
|-----------------------------------------------------7----------------------5|
|-----------------------------------------------------------------------------|

|--------------5--5----5-5----------------------------------------------------|
|------------------------------5----------------------------------------------|
|-----5--------------------------7--------------------------------------------|
|-4-7----7~--5----4--3---2----------------------------------------------------|
|--------------------------5/7------------------------------------------------|
|-----------------------------------------------------------------------------|

|----------------------------------------------------------------------8-5----|
|-8h10---8-5--------5---------8h10---8-5----------------8h10---7--6\5------5--|
|-9------9-5--------5h6-------9------9-5----------------9------7--6\5--------7|
|------7-----7--5h7-------7-7------7-----7--5-7-5---7-7------7-7--6\5---------|
|-----------------------------------------------------------------------------|
|-----------------------------------------------------------------------------|

|-----------------------------------------------------------------------------|
|------8h10---8-5--------5----------------5----------------------5------------|
|-5b---9------9-5--------5h6-----5-7-5-7b---7b-7rp5---------5-7b---7b-7rp5----|
|----7------7-----7--5-7-------7--------------------7-----7----------------7--|
|-----------------------------------------------------7----------------------5|
|-----------------------------------------------------------------------------|

|--------------5--5----5-5----------------------------------0-----------------|
|------------------------------5-------1---3--3-1---------1---3-1---1b----3---|
|-----5--------------------------7---2---2--------2-x---2---------2-----------|
|-4-7----7~--5----4--3---2----------------------------0-----------------0-----|
|--------------------------5/7------------------------------------------------|
|-----------------------------------------------------------------------------|

|-------------5---5----5---5-----------------------------0--------------------|
|---3-1-------5h7-5h7--5h7-5-1---1b----3---3-1---------1---3-1---1b-----3--3-1|
|-------2----------------------2---------------2-0---2---------2------2-------|
|-0-------0--------------------------0---0------------------------------------|
|--------------------------------------------------3----------------2---------|
|-----------------------------------------------------------------------------|

|-----------------------------------------------------------------------------|
|-----------------------------------------------------------------------------|
|-2---------------------------------------------------------------------------|
|---0h1p0---------------------------------------------------------------------|
|---------3-------------------------------------------------------------------|
|-----------0-----------------------------------------------------------------|

|-----------------------------------------------------------------------------|
|-8h10---8-5--------5-----8h10---8-5------------------------5-----------------|
|-9------9-5--------5h6---9------9-5---------------5-7-5-7b---7b-7rp5---------|
|------7-----7--5h7------------7-----7--5-7-5---/7--------------------7-------|
|-----------------------------------------------------------------------7-----|
|-----------------------------------------------------------------------------|


|----------------------------------5-5---5-5----------------------------------|
|--------5---------------------------------------5----------------------------|
|---5-7b---7b-7rp5----------5----------------------7--------------------------|
|-7----------------7----4-7---7--5---4-3---2----------------------------------|
|--------------------5------------------------/7------------------------------|
|-----------------------------------------------------------------------------|

|-------------------------------------------------5/7\5------5/7\5------------|
|-----5/7\5-----5/7\5-------5/7\5------5/7\5------5/7\5------5/7\5------5/7\5-|
|-----4/6\4-----4/6\4-------4/6\4------4/6\4----------------------------4/6\4-|
|-----------------------------------------------------------------------------|
|--------------------------------------------5-5---------5-5------------------|
|-5-5-------5-5--------5-5---------5-5-----------------------------5-5--------|

|---------------7/9\7------5/7\5----------------------------------------------|
|-----5/7\5-----7/9\7------5/7\5------5/7\5--------5--------------------------|
|-----4/6\4---------------------------4/6\4----5h6---7------------------------|
|------------------------------------------------------7b-7rp5----------------|
|-----------7-7-------5-5--------------------------------------7--------------|
|-5-5-----------------------------5-5--------5--------------------------------|

|-------------------------------------------------5/7\5------5/7\5------------|
|-----5/7\5-----5/7\5-------5/7\5------5/7\5------5/7\5------5/7\5------5/7\5-|
|-----4/6\4-----4/6\4-------4/6\4------4/6\4----------------------------4/6\4-|
|-----------------------------------------------------------------------------|
|--------------------------------------------5-5---------5-5------------------|
|-5-5-------5-5--------5-5---------5-5-----------------------------5-5--------|

|---------------7/9\7------5/7\5----------------------------------------------|
|-----5/7\5-----7/9\7------5/7\5------5/7\5--------5--------------------------|
|-----4/6\4---------------------------4/6\4----5h6---7------------------------|
|-----------------------------------------------------------------------------|
|-----------7-7-------5-5-----------------------------------------------------|
|-5-5-----------------------------5-5--------5--------------------------------|

 Sax solo 1:30

|-----5------------------------------------5----5-----5-----------------------|
|-------------10-----10-------10-13b---5/7------------------10-12br----10-7h10|
|-5h6---6h7-8----8h9-----9/11----------------5b---5h7---/11---------11--------|
|-----------------------------------------------------------------------------|
|-----------------------------------------------------------------------------|
|-----------------------------------------------------------------------------|

|-----------------------------------------------------------------------------|
|-5h7-5h7p5-7--------------10-12br---10-5/7-10----------------------------10--|
|-------------5-----x-9/11---------11------------------------------9-9/11-----|
|---------------7------------------------------9br---9-7--x-7-9/11------------|
|--------------------------------------------------9--------------------------|
|-----------------------------------------------------------------------------|

|-------12-12/14-17--17--17-----------17--------------------------------------|
|-12/14----------------------13b---------13b--------12-----10--------10-12-8--|
|---------------------------------14---------14--14----/11------/11-----------|
|-----------------------------------------------------------------------------|
|-----------------------------------------------------------------------------|
|-----------------------------------------------------------------------------|

|-----------------------------------------------------------------------------|
|---8h10---7h8---5h7----------------------------------------------------------|
|-9------9-----9-----6-5-4h5--------------------------------------------------|
|----------------------------x-/10--7-9-7--/7--------7---5h7-5h7-5h7-5h7-5h7--|
|---------------------------------------------9-7--x---x----------------------|
|-----------------------------------------------------------------------------|

|-----------------------------------5--5-7b-----------------------------------|
|-------------------------------5h7--------------10--/7p5-7-------------------|
|---------------------------5-7--------------/11------------5-4---------------|
|-5h7-5h7-5h7-5h7-5h7-5h7-7---------------------------------------7---7-------|
|---------------------------------------------------------------9---9---------|
|-----------------------------------------------------------------------------|

|------------------10brp8-----------------------------------------------------|
|---------------10------------------------------------------------------------|
|--------9--11----------------------------------------------------------------|
|-7-9/11----------------------------------------------------------------------|
|-----------------------------------------------------------------------------|
|-----------------------------------------------------------------------------|

 Guitar solo 2:14
|--------------5---------------------------5------5------------------5--5--5~-|
|------------5---8p5---------------------5------5------------------5----------|
|---5-7-5-7b---------7brp5------------7b-----7b-----7rp5---7---5h6------------|
|-7------------------------7--------7--------------------7---7----------------|
|----------------------------5------------------------------------------------|
|------------------------------8b---------------------------------------------|

|-8-10/12-8b------------------------------------------------------------------|
|------------10p8------------10-8---------------------------------------------|
|-----------------9\7p5---/9------9-7h8-7-5------------------7/9-9-9\7p5------|
|-------------------------------------------7p5--------------------------7----|
|-----------------------------------------------7\5p3---3b--------------------|
|-----------------------------------------------------5-----------------------|

|-----------------------------------------------------------------------------|
|-------3/5-8p5--------------------5------------------10~-8p5---5-------------|
|-5h7p5---------7p5------------5-7---7p5-------5--------------7---4/5---------|
|-------------------7-5--7--/7-----------7-5h7---7/12-----------------7-5-----|
|-------------------------------------------------------------------------7---|
|-----------------------------------------------------------------------------|

|-----------------------------------------------------------------------------|
|------/8-0-7-5-----0--0h2------------0-7-5-----0--2---/5--5-5----------------|
|------/9---7-5h6---0--0h2--2---x-7/9---7-5h6---0--2-0-/5--5-5----------------|
|-----------------7---------------------------7----------------7--------------|
|-7-7------------------------------------------------------------7-5-3-5------|
|------------------------------------------------------------------------5----|

|----10p8----------------------------------------5----------7-----------------|
|-10------10-8p5-----------5-----5-----------5-7---5-7p5-7b---7b-7rp5---5--7--|
|----------------7-5p2---2-5h6-7-5h6-----5h6--------------------------6-------|
|----------------------4---------------7--------------------------------------|
|-----------------------------------------------------------------------------|
|-----------------------------------------------------------------------------|

|----5-7/8-7-5----------------------------------------------------------------|
|-/7-----------7/8-7-5--------------------------------------------------------|
|----------------------4/5-4-2------------------------------------------------|
|------------------------------4/5-4-2----------------------------------------|
|--------------------------------------2/3-2-0-------------3b-0---------------|
|----------------------------------------------2/3-2-0-2p0------3-0-0-0-------|

|-------12-------------------------10-11-12---------------------------/14-12--|
|-x-12b-----12b-12rp10----10---12b------------------10-13~~--------10---------|
|----------------------11------------------9-x-9h11-----------9/11------------|
|-----------------------------------------------------------------------------|
|-----------------------------------------------------------------------------|
|-----------------------------------------------------------------------------|

|-----------------------------------------5-----------------------------------|
|-13-10p8------------------x-10--7\5---5--3h4---3-----------------------------|
|---------9\7-5------------x-10b-7\5---5------5---5---------------------------|
|---------------7-5------------------7--------------7-5-------------4-7-------|
|-------------------7\5p3--------------------------------7-5-3h4-/7-----------|
|-----------------------------------------------------------------------------|

|---------5-5~~-8h9-10p9-10p9-10h11p10p8------------------5-------------------|
|-------5--------------------------------10p8-----------5---8---5-------------|
|---5h6---------------------------------------9\7p5---7-------7---7rp5--------|
|-x-------------------------------------------------7------------------7------|
|-----------------------------------------------------------------------------|
|-----------------------------------------------------------------------------|

|---------/5-5-5-/5-5-5-/5-5-5--------------------------17--------------------|
|-----5-7-/5-5-5-/5-5-5-/5-5-5-7---5--------------15/17----17\15-13-----------|
|-5h6--------------------------7---5--------------------------------14--------|
|--------------------------------7---7p5-------------------------------14-12--|
|----------------------------------------7-7-7\/------------------------------|
|-----------------------------------------------------------------------------|

|-----------------17-17-------------17-------------------------------------10-|
|-----------14----14-14h15--x-16/17----16\15-13b------------------------10----|
|-----------14----14-14-----x--------------------14--12p9----------9-11-------|
|-10h11-14-----14-----------------------------------------12-10h11------------|
|-----------------------------------------------------------------------------|
|-----------------------------------------------------------------------------|

|-14-12~---------------------------14-12~-------------------------------------|
|--------15--13---------------------------13h14------8p5---5------------------|
|---------------14--------------14--------------14~~-----7-5------------------|
|------------------14-12-10----------------------------------7p5--------------|
|---------------------------12------------------------------------------------|
|-----------------------------------------------------------------------------|

|------------------------------------------------------5-----5-----5---5------|
|--------5~----5---------------7-5-----------------------------------------5--|
|-----------7--5-------------7-----7-5---------------------------------------7|
|----5-6---------7-------4-7-----------7---------7-0-5---5-4---4-3---0-2------|
|-/7---------------7-6p5-----------------6h7-5-4------------------------/7----|
|-----------------------------------------------------------------------------|

|------------------------0---------------------------5---5----5---5-----------|
|---1---3--3-1---------1---3-1---1b----3---3-1-------5h7-5h7--5h7-5-1---1b----|
|-2---2--------2-x---2---------2---------------2----------------------2-------|
|------------------0-----------------0---0-------0----------------------------|
|-----------------------------------------------------------------------------|
|-----------------------------------------------------------------------------|

|---------------------0-------------------------------------------------------|
|---3---3-1---------1---3-1---1b-----3--3-1-----------------------------------|
|-----------2-0---2---------2------2--------2---------------------------------|
|-0---0---------------------------------------0h1p0---------------------------|
|---------------3----------------2------------------3-------------------------|
|-----------------------------------------------------0-----------------------|

|----------------------------------------------------------------------8-5----|
|-8h10---8-5--------5---------8h10---8-5----------------8h10---7--6\5------5--|
|-9------9-5--------5h6-------9------9-5----------------9------7--6\5--------7|
|------7-----7--5h7-------7-7------7-----7--5-7-5---7-7------7-7--6\5---------|
|-----------------------------------------------------------------------------|
|-----------------------------------------------------------------------------|

|-----------------------------------------------------------------------------|
|------8h10---8-5--------5----------------5----------------------5------------|
|-5b---9------9-5--------5h6-----5-7-5-7b---7b-7rp5---------5-7b---7b-7rp5----|
|----7------7-----7--5-7-------7--------------------7-----7----------------7--|
|-----------------------------------------------------7----------------------5|
|-----------------------------------------------------------------------------|

|--------------5--5----5-5----------------------------------------------------|
|-----------------------------------------5---------------------5-------------|
|-----5--------------------------5-7-5-7b---7b-7rp5--------5-7b---7b-7rp5-----|
|-4-7----7~--5----4--3---2----/7--------------------7----7----------------7---|
|-----------------------------------------------------7---------------------5-|
|-----------------------------------------------------------------------------|

|--------------8b-5---------------5-------------------------------------------|
|-------------------5---------5-7-7bp5----------------------------------------|
|---------5-----------7---5h6----------7-7brp5--------------------------------|
|---3h4-7---7-----------7----------------------7p5----------------------------|
|-5------------------------------------------------7\5p3----------------------|
|--------------------------------------------------------5--------------------|
Добавлено: 18.06.2016
Вам также может быть интересно:
Другие материалы по этой песне:
  • Аккорды и текст

Страница создана 18.06.2016
http://primanota.ru/robben-ford/cannonball-shuffle-chords.htm
Привет, Гость.
Предлагаем пройти революционный курс по гитаре.
Подарок от PrimaNota.Ru, забирай!