PrimaNota.ru - самый крупный в мире бесплатный архив песенных текстов, аккордов, табулатур и нот


Robben Ford - The Brother - таба, видео

Регистрация Запомнить меня
Войти через:  Facebook Google Twitter Vk Yandex Mail.ru

Robben Ford - The Brother - таба, видео

Печатать
Просмотров: 249
The Brother (for Jimmie & Stevie)
Robben Ford the Blueline
Transcribed by Miguel Bioque

The original song is in Eb ( maybe it's a wink to
Steve Ray Vaughan?) I  have transcribed it ½ tone up.
If you want to get that funky-jazz style don't forget
to play with the CD (Robben ford anf the Blueline) and
using, most of
all, the first and the little fingers!) 

INTRO: 

   E5  D5  A5 E5  D5  A5    E5  D5  A5  G5  C5 E
e---------------------------------------------0--I
b---------------------------------------------0--I
g---------------------------------------------1--I
D--9----7------9----7-------9----7---------5--2--I
A--7----5--7---7----5--7----7----5--7---5--3--2--I
E----------5-----------5------------5---3-----0--I

Drums Break 
Rhythm (Guitar example) 
      E
E:-------------------------------------------------:I
b:---9-9-9--7--9--9-9--9---9-9-9--7--9-------------:I
g:---9-9-9--7--9--9-9--9---9-9-9--7--9---7^9-------:I
D:---9-9-9--7--9--9-9--9---9-9-9--7--9-------7^9---:I
A:---7---7--7--------------7---7--7----------------:I
E:-------------------------------------------------:I

Part A1: (Main guitar) 
  E
e------------------------------------------I
b------------------------------------------I
g---------------12-12^14----12-------------I
D-------12--14-----------------14--12 -----I
A---/14--------------------------------14--I
E------------------------------------------I 

e----------------------------------------I
b----------------------------------------I 
g---12 ----------------------------------I
D--------12--------------12^14-----------I
A------------14--12--14------------------I
E----------------------------------------I

e------------------------------------------I
b------------------------------------------I
g---------------12-12^14----12-------------I
D-------12--14-----------------14-12 ------I
A---/14--------------------------------14--I
E------------------------------------------I 

e---------------------------------------------------------I
b---------------------------------------------------------I
g---12 ---------------------------------------------------I
D-------14--------------12^14-------------12--14----------I
A-----------14--12--14------------12--14---------12^14----I
E------------------------------------------------------12-I

   B7
e---------------------------------------------------------I
b---------------------------------------------------------I
g--------------------------------------12^14 --12 ---12 --I
D-------------12-12^14-12 -------12^14-------------14-----I
A-------12-14--------------14-----------------------------I
E--/14----------------------------------------------------I
   
   A7                                           G5  C5
 E
e-----------------------15--12----------------------------I
b------------------12-----------15^12---------------------I
g--14-----12--14----------------------14^12-----12--14----I
D------14-----------------------------------14---------14-I
A---------------------------------------------------------I
E---------------------------------------------------------I

e---------------------------------------------I
b--------------------15^12--------15^12-------I
g---------12 ---------------14----------------I
D---------12 ----------------------------14---I
A-12^14---------------------------------------I
E---------------------------------------------I

PART A2:
    E
e------------------------------------------I
b------------------------------------------I
g---------------12-12^14----12-------------I
D-------12--14-----------------14-12 ------I
A---/14--------------------------------14--I
E------------------------------------------I
 
e--------------------------------------------------I
b---------------------------------15^12------15 > -I 
g---12 ----------------------------------14--------I
D--------14--------------12^14---------------------I
A------------14--12--14----------------------------I
E--------------------------------------------------I  
    
	E
e------------------------------------------I
b------------------------------------------I
g---------------12-12^14----12-------------I
D-------12--14-----------------14-12 ------I
A---/14--------------------------------14--I
E------------------------------------------I
 
e-------------------------------------------------I
b----------------------------------14 >-^12-------I 
g---12 ----------------------------14 >-^12-------I
D-------14--------------12^14----------------14---I
A-----------14--12--14----------------------------I
E-------------------------------------------------I

	B7
e---------------------------------------------------------I
b---------------------------------------------------------I
g--------------------------------------12^14 --12 ---12 --I
D-------------12-12^14-12 -------12^14-------------14-----I
A-------12-14--------------14-----------------------------I
E--/14----------------------------------------------------I
   
   A7                                           G5  C5
 E
e-----------------------15--12----------------------------I
b------------------12-----------15^12---------------------I
g--14-----12--14----------------------14^12-----12--14----I
D------14------------------------------------14--------14-I
A---------------------------------------------------------I
E---------------------------------------------------------I

Rhythm Guitar
   E5 G5 A5 		        G5 A5
e-----------------------------------------------------I
b-----------------------------------------------------I
g-----------------------------------------------------I
D-----------------------------------------------------I
A--2--5--7-----------------------5--7-----------------I
E--0--3--5-----------------------3--5-----------------I
// Main Guitar:				              //	
e-----------------------------------------------------I
b-----------------------------------------------------I
g------------14--14--14--12------------12--14--14 ----I
D----------------------------14--12-------------------I
A-----------------------------------------------------I
E-----------------------------------------------------I
    
     G5 A5           	        G5   E5	
e-----------------------------------------------------I
b-----------------------------------------------------I
g-----------------------------------------------------I
D-----------------------------------------------------I
A----5--7-----------------------5----2----------------I
E----3--5-----------------------3----0----------------I
//     					              //	
e-----------------------------------------------------I
b------------------------------------------12---------I
g---------14--14--14--12-----------11 (12)----(12)>-9-I
D--------------------------14--12---------------------I
A-----------------------------------------------------I
E-----------------------------------------------------I

   E5 G5 A5  		                   A5	  B7
e-------------------------------------------------7---I
b-------------------------------------------------7---I
g-------------------------------------------------8---I
D-------------------------------------------------7---I
A--2--5--7----------------------------------7-----9---I
E--0--3--5----------------------------------5-----7---I
//     						     //	
e------------------------------------------------12---I
b-----------------------------------------------------I
g------------14--14--14--12------------12 ------------I
D----------------------------14--12--------14---------I
A-----------------------------------------------------I
E-----------------------------------------------------I
 B7 B7sus4 B7									E
e--7---7----7-------------------------------------------I
b--7---7----7-------------------------------------------I
g--8---9----8--------------------------12 --------------I
D--7---7----7-------------------12^14-------14^12-------I
A--9---9----9------------12^14--------------------14----I
E--7---7----7-----12^14------------------------------12-I

e-15^12--------------------------------------------------I
b-------12--15^12---------12--15-------------------------I
g------------------12^14----------14^12-14^12--------12 -I
D------------------------------------------------14------I
A--------------------------------------------------------I
E--------------------------------------------------------I

e----------------------------------------I
b----------15----------------------------I
g---12^14--------14^12-------12 ---------I
D------------------------14--------14----I
A----------------------------------------I
E----------------------------------------I

	E
e------------------------------------------I
b------------------------------------------I
g---------------12-12^14----12-------------I
D-------12--14-----------------14-12 ------I
A---/14--------------------------------14--I
E------------------------------------------I

PART A-End					Solo (Yes, he's played before!)
e-----------------------------------------------15-I
b-------------------------------------------15 ----I 
g---12 --------------------------------------------I
D--------14----------------------------------------I
A------------14--12--14----------------------------I
E--------------------------------12----------------I

12^14 pull off
12  ¼ bending
12 (13) bend till you find the next note
12 > ¼ up & ¼ down
I hope you find the tab clear so you can enjoy it!

Please,write down all Robben's songs you know!
This is my first collaboration with . Thank for so
much pretty songs you have written! More Jazz &
fussion!!
Any comments welcome at mbioque@yahoo.com 
     
Добавлено: 02.07.2013
Другие материалы по этой песне:
  • Аккорды и текст

Страница создана 02.07.2013
http://primanota.ru/robben-ford/the-brother-chords.htm
Привет, Гость.
Предлагаем пройти революционный курс по гитаре.
Подарок от PrimaNota.Ru, забирай!