PrimaNota.ru - самый крупный в мире бесплатный архив песенных текстов, аккордов, табулатур и нот


Robben Ford - Top Down Blues - таба, видео

Регистрация Запомнить меня
Войти через:  Facebook Google Twitter Vk Yandex Mail.ru

Robben Ford - Top Down Blues - таба, видео

Печатать
Просмотров: 99
Уроки эстрадного вокала в Санкт-Петербурге
-------------------------------------------------------------------------------
                             Top Down Blues - Robben Ford
                         from album A Day In Nashville (2014)
-------------------------------------------------------------------------------
Tabbed by: JBroek13
E-mail: job.vandenbroek@yahoo.com

Tuning: E standard
Key: G#

Rhythm Guitar 
e|--11/13--13--11------------------------------------------------------------|
B|--11/13--13--11-----13------------------13---------------------------------|
G|--11/13--13--11-----13------13----13----13-----13-------x-x--13------------|
D|--10/12--12--10-----13h15---13----13----13-----13-------x-x--13------------|x2
A|--11/13--13--11-----13------13----13h15--------13h15----x-x--13h15---------|
E|---------------------------------------------------------------------------|

e|---4/6--6--4-------------------------------------------------|
B|---4/6--6--4-----6-------------6-----------------------------|
G|---4/6--6--4-----6----6---6----6----6----x-x--6--------------|
D|---3/5--5--3-----6h8--6---6----6----6----x-x--6--------------|
A|---4/6--6--4-----6----6---6h8-------6h8--x-x--6h8------------|
E|-------------------------------------------------------------|

e|--11/13--13--11------------------------------------------------------------|
B|--11/13--13--11-----13------------------13---------------------------------|
G|--11/13--13--11-----13------13----13----13-----13-------x-x--13------------|
D|--10/12--12--10-----13h15---13----13----13-----13-------x-x--13------------|
A|--11/13--13--11-----13------13----13h15--------13h15----x-x--13h15---------|
E|---------------------------------------------------------------------------|


e|--6--6-----6/8------6------5--4--4------4/7-----6--4----------|
B|--6--6-x-x-6/8------6--x-x-5--4--4--x-x-4/7-x-x-6--4----------|
G|--6--6-x-x-6-8------6--x-x-5--4--4--x-x-4-7-x-x-6--4----------|
D|--5--5-x-x-5-7------5--x-x-4--3--3--x-x-3-6-x-x-5--5----------|
A|--6--6-x-x-6-8------6--x-x-5--4--4--x-x-4-7-x-x-6--4----------|
E|--------------------------------------------------------------|

e|--11/13--13--11------------------------------------------------------------|
B|--11/13--13--11-----13------------------13---------------------------------|
G|--11/13--13--11-----13------13----13----13-----13-------x-x--13------------|
D|--10/12--12--10-----13h15---13----13----13-----13-------x-x--13------------|
A|--11/13--13--11-----13------13----13h15--------13h15----x-x--13h15---------|
E|---------------------------------------------------------------------------|


Lead Guitar: Main Motif
e|----------------------------------------------------------------------------------------------------------|
B|-----------------------------------------------------------------------------7-7/9\7----------------------|
G|------------4h6p4-----------------6-4---4------6/8--8/6p4------------------8---------8----6bp4---4--------|
D|-----6------------6------6------6-----6------6------------6-----6---6--------------------------6-------6--|
A|--/8------------------/8-------------------------------------/8---8---------------------------------/8----|
E|----------------------------------------------------------------------------------------------------------|



Solo #1
e|---------------------------------------------------4--------------------------------|
B|-----------------------4------------------------------------------------------------|
G|----4-6-4-6b7-------4-6---4---4b----------4-6-4--6b--8\6p4------6b-4h6-4b-----4b----|
D|--6--------------6----------6-----6-----6-------------------6---------------6-------|
A|------------------------------------------------------------------------------------|
E|------------------------------------------------------------------------------------|

e|--------4-4-------------------------------3-4-7p4--------------------------|
B|-4-4-7b-----7-----7p4--------------4-4-7b----------------------------------|
G|----------------------6--6p4--------------------------6b-4h6--4------------|
D|-----------------------------6-4--------------------------------6---4/6----|
A|------------------------------------------------------------------6--------|
E|---------------------------------------------------------------------------|

e|---------------------------------------------------------------------------------------------|
B|-------------------------------------------------7-7/9\7-------------------------------------|
G|----6p4---4--------6/8---8\6p4-----------------8---------8---6bp4----4---------------6b-4b---|
D|--6-----6--------6-------------6------6-9-6------------------------6-------6-----------------|
A|-----------------------------------/8-----------------------------------/8-------------------|
E|---------------------------------------------------------------------------------------------|


Rhythm Guitar:

Blues progression with G#(9) C#9 D#9


Solo #2
e|---------------------------------------------------------------------------------------|
B|-------9-9~---12b--11b12-9----9--x-----------------------------------------------------|
G|--7/8----------------------11------x-----------------------------3b------4p1-----------|
D|-------------------------------------11--9b-----3-4---4-4-x-4b-6-----x-3-----4-4/6-----|
A|----------------------------------------------6----------------------------------------|
E|---------------------------------------------------------------------------------------|

e|----------------------------------------4-7-4----------------------4-----|
B|------------------------------------5b6-------4--7/9--7------------------|
G|----4---4/6---8p6---6---6b------------------------------8--4h6-4h5-------|
D|--6---6-----------9--------9b-6-6-------------------------------------6--|
A|-------------------------------------------------------------------------|
E|-------------------------------------------------------------------------|

e|-11h13br-11-13--------------------------------11-------------------------|
B|----------------14\12----------------11---12b-------------16--14-16------|
G|----------------------13-11----13------13---------------13----------16b--|
D|----------------------------13-------------------13----------------------|
A|-------------------------------------------------------------------------|
E|-------------------------------------------------------------------------|

e|-------9-------------------------------------------------------------------------|
B|-12b14--12b-12-9\7--------------------------------9--------7---------------------|
G|-------------------8\6p4---------------8-------10--------8---6---8---------------|
D|---------------------------6--6-6-9/10---10/11----------------------9--6------6--|
A|--------------------------------------------------------------------------8-6----|
E|---------------------------------------------------------------------------------|

e|-------------------------------------------------4------------------4--4-7-4----------------------|
B|---------------------------------------------------------------7b9~-----------7---4---------------|
G|------4h6b8------6b8rp4-----------------4---4-6b8---6b8rp4b5--------------------6-----6b8rp4---4--|
D|--6-6------------------6-4b--------4/6----6--------------------------------------------------6----|
A|--------------------------------------------------------------------------------------------------|
E|--------------------------------------------------------------------------------------------------|

e|---------------7-9-11-14/16---18b20-18-16-----------------------------------|
B|--------7-9--------------------------------18-16----------------------------|
G|--6---8-------------------------------------------18b20rp16---16h18p16-18b--|
D|----------------------------------------------------------------------------|
A|----------------------------------------------------------------------------|
E|----------------------------------------------------------------------------|

e|-------20-19-18-17-16-14-------16-----------------------------------------------11--13-11-13b14-13~p11----|
B|-19b21--------------------16b18---14~----16b18-b18-16~--16\14--12---------12/13---------------------------|
G|---------------------------------------------------------------------13-----------------------------------|
D|------------------------------------------------------------------15--------------------------------------|
A|----------------------------------------------------------------------------------------------------------|
E|----------------------------------------------------------------------------------------------------------|

e|-------------------14b15-------------------------11---------9--------8---------6----------9--------7---|
B|-14--14brp12b------------16-------------------11----------9--------8---------6----------9--------7-----|
G|-----------------------------15-13------11/12--------9/10------7/8-------5/6--------9/10------7/8------|
D|-------------------------------------------------------------------------------------------------------|
A|-------------------------------------------------------------------------------------------------------|
E|-------------------------------------------------------------------------------------------------------|

e|-------6-------4--------4---4--7b-4----------4-----------------------------|
B|-----6-------4-----7b9----7----------7-------------------------------------|
G|-5/6-----3/4-----------------------------6b8---8\6p4-----------------------|
D|----------------------------------------------------------6----------------|
A|-------------------------------------------------------/8------------------|
E|---------------------------------------------------------------------------|

************************************

| /   slide up
| \   slide down
| h   hammer-on
| p   pull-off
| ~   vibrato
| +   harmonic
| x   Mute note
| b   Bend note 1/4
| pb  Pre-bend
| br  Bend release
| pbr Pre-bend release
| brb Bend release bend

************************************
Добавлено: 18.06.2016
Другие материалы по этой песне:
  • Аккорды и текст

Страница создана 18.06.2016
http://primanota.ru/robben-ford/top-down-blues-chords.htm
Привет, Гость.
Предлагаем пройти революционный курс по гитаре.
Подарок от PrimaNota.Ru, забирай!