PrimaNota.ru - самый крупный в мире бесплатный архив песенных текстов, аккордов, табулатур и нот


Rob Zombie - Superbeast - аккорды и текст, таба, бас-таба, видео

Регистрация Запомнить меня
Войти через:  Facebook Google Twitter Vk Yandex Mail.ru

Rob Zombie - Superbeast - аккорды и текст, таба, бас-таба, видео

Печатать
Просмотров: 336
Уроки эстрадного вокала в Санкт-Петербурге
Авторы музыки: Charlie Clouser, Scott Humphrey, Rob Zombie
Авторы текста: Rob Zombie
Superbeast
Rob Zombie
Rob zombie - superbeast
Album - Hellbilly Deluxe
Tabbed by - Richard Phillipson
Email - r2k2great@hotmail.com

Intro


2x

e|------------------------------------------------------------------
B|------------------------------------------------------------------
G|------------------------------------------------------------------
D|--8-8-8-8-8-8-8-8-8/7-7-7-7-7-7-7-/3-3-3-3-3-3-3-3-3/4-4-4-44-6-6-
A|------------------------------------------------------------------
E|------------------------------------------------------------------


2x
e|------------------------------------------------------------------
B|------------------------------------------------------------------
G|------------------------------------------------------------------
D|--8-8-8-8-8-8-8-8/7-7-7-7-7-7/3-3-3-3-3-3-3-3/4-4-4-4/6-6---------
A|--8-8-8-8-8-8-8 8/7-7-7-7-7-7/3-3-3-3-3-3-3-3/4-4-4-4/6-6---------
E|--8-8-8-8-8-8-8-8/7-7-7-7-7-7/3-3-3-3-3-3-3-3/4-4-4-4/6-6---------

4x

e|------------------------------------------------------------------
B|------------------------------------------------------------------
G|------------------------------------------------------------------
D|--8-8-8-10-8-8-8-8-8-8-6------------------------------------------
A|--8-8-8-10-8-8-8-8-8-8-6------------------------------------------
E|--8-8-8-10-8-8-8-8-8-8-6------------------------------------------

then the verse
7x
e|------------------------------------------------------------------
B|------------------------------------------------------------------
G|------------------------------------------------------------------
D|--1-1-1-1-1-1-1-1-1-1/6-------------------------------------------
A|--1-1-1-1-1-1-1-1-1-1/6-------------------------------------------
E|--1-1-1-1-1-1-1-1-1-1/6-------------------------------------------

chorus

4x
"Hey yea im the one that you wanted hey yea im the superbeast"
e|------------------------------------------------------------------
B|------------------------------------------------------------------
G|------------------------------------------------------------------
D|--8-8-8-10-8-8-8-8-8-8-6-8-8--------------------------------------
A|--8-8-8-10-8-8-8-8-8-8-6-8-8--------------------------------------
E|--8-8-8-10-8-8-8-8-8-8-6-8-8--------------------------------------

2x
e|------------------------------------------------------------------
B|------------------------------------------------------------------
G|------------------------------------------------------------------
D|--8-8-8-8-8-8-8-8/7-7-7-7-7-7/3-3-3-3-3-3-3-3/4-4-4-4/6-6---------
A|--8-8-8-8-8-8-8 8/7-7-7-7-7-7/3-3-3-3-3-3-3-3/4-4-4-4/6-6---------
E|--8-8-8-8-8-8-8-8/7-7-7-7-7-7/3-3-3-3-3-3-3-3/4-4-4-4/6-6---------

Then back to the verse

7x
e|------------------------------------------------------------------
B|------------------------------------------------------------------
G|------------------------------------------------------------------
D|--1-1-1-1-1-1-1-1-1-1/6-------------------------------------------
A|--1-1-1-1-1-1-1-1-1-1/6-------------------------------------------
E|--1-1-1-1-1-1-1-1-1-1/6-------------------------------------------

Chorus
4x
e|------------------------------------------------------------------
B|------------------------------------------------------------------
G|------------------------------------------------------------------
D|--8-8-8-10-8-8-8-8-8-8-6------------------------------------------
A|--8-8-8-10-8-8-8-8-8-8-6------------------------------------------
E|--8-8-8-10-8-8-8-8-8-8-6------------------------------------------

If anyone knows the solo pease tell me

2x
e|------------------------------------------------------------------
B|------------------------------------------------------------------
G|------------------------------------------------------------------
D|--8-8-8-8-8-8-8-8/7-7-7-7-7-7/3-3-3-3-3-3-3-3/4-4-4-4/6-6---------
A|--8-8-8-8-8-8-8 8/7-7-7-7-7-7/3-3-3-3-3-3-3-3/4-4-4-4/6-6---------
E|--8-8-8-8-8-8-8-8/7-7-7-7-7-7/3-3-3-3-3-3-3-3/4-4-4-4/6-6---------

The guitar in this verse starts when the Rob sings "The ragged they come and
the ragged
they kill"

4x
e|------------------------------------------------------------------
B|------------------------------------------------------------------
G|------------------------------------------------------------------
D|--1-1-1-1-1-1-1-1-1-1/6-------------------------------------------
A|--1-1-1-1-1-1-1-1-1-1/6-------------------------------------------
E|--1-1-1-1-1-1-1-1-1-1/6-------------------------------------------

Ending

8x
e|------------------------------------------------------------------
B|------------------------------------------------------------------
G|------------------------------------------------------------------
D|--8-8-8-10-8-8-8-8-8-8-6------------------------------------------
A|--8-8-8-10-8-8-8-8-8-8-6------------------------------------------
E|--8-8-8-10-8-8-8-8-8-8-6------------------------------------------


Thats all for this amazingly easy song can someone please catch me on msn or
email me
about that solo or corrections :-)
     
Добавлено: 28.06.2013
Другие материалы по этой песне:

Страница создана 28.02.2012
http://primanota.ru/rob-zombie/superbeast-chords.htm
Привет, Гость.
Предлагаем пройти революционный курс по гитаре.
Подарок от PrimaNota.Ru, забирай!