PrimaNota.ru - самый крупный в мире бесплатный архив песенных текстов, аккордов, табулатур и нот


Rob Zombie - What - таба, бас-таба, видео

Регистрация Запомнить меня
Войти через:  Facebook Google Twitter Vk Yandex Mail.ru

Rob Zombie - What - таба, бас-таба, видео

Печатать
Просмотров: 356
-------------------------------------------------------------------------------
                             WHAT? - Rob Zombie
-------------------------------------------------------------------------------
Tabbed by: ironmanben
Email: bentrooper@gmail.com

Tuning: full step down drop D (d A F C G C)

main riff:
(both guitars)
 |x3              |x1                     |
e|----------------|-----------------------|
B|----------------|-----------------------|
G|----------------|-----------------------|
D|----------------|-----------------------|
A|----------------|-----------------------|
E|-5-5--5-5-4-3-0-|-5/8-8-8-8-10-10-10-10-|

main riff 2:
 |x3              |x1                     |
e|----------------|-----------------------|
B|----------------|-----------------------|
G|----------------|-----------------------|
D|----------------|-----------------------|
A|----------------|-----------------------|
E|-5-5--5-5-4-3-0-|-5/8-8-8-8-10-10-10-10-|
-|
 |x3              |x1                     |
e|----------------|-----------------------|
B|----------------|-----------------------|
G|----------------|-----------------------|
D|----------------|-----------------------|
A|----------------|-----------------------|
E|-5-5------------|---8-8---8-10-10----10-|

riff 2:
(both guitars)
e|--------------------------------------------------------------|
B|--------------------------------------------------------------|
G|-10101010101010109-9-9-9-7-7-7-7------------------------------|
D|-10101010101010109-9-9-9-7-7-7-7------------------------------|
A|-8-8-8-8-8-8-8-8-7-7-7-7-5-5-5-5------------------------------|
E|---------------------------------5-5--5-5-5--5-5-5--5-5-4-3-0-|

main riff 3:
e|----------------------------------------------|-----------------------|
B|----------------------------------------------|-----------------------|
G|----------------------------------------------|-----------------------|
D|----------------------------------------------|-----------------------|
A|----------------------------------------------|-----------------------|
E|-5-5--5-5-4-3-0----------------5-5--5-5-4-3-0-|-5/8-8-8-8-10-10-10-10-|
-|                                              |                       |
e|----------------------------------------------|-----------------------|
B|----------------------------------------------|-----------------------|
G|----------------------------------------------|-----------------------|
D|----------------------------------------------|-----------------------|
A|----------------------------------------------|-----------------------|
E|----------------5-5--5-5-4-3-0-5-5--5-5-4-3-0-|-----------------------|

main riff 4:
 |x3              |x1                     |
e|----------------|-----------------------|
B|----------------|-----------------------|
G|----------------|-----------------------|
D|----------------|-----------------------|
A|----------------|-----------------------|
E|-5-5--5-5-4-3-0-|-5/8-8-8-8-10-10-10-10-|
-|
 |x3              |x1                     |
e|----------------|-----------------------|
B|----------------|-----------------------|
G|----------------|-----------------------|
D|-5-5--5-5-4-3-0-|-5/8-8-8-8-10-10-10-10-|
A|-5-5--5-5-4-3-0-|-5/8-8-8-8-10-10-10-10-|
E|-5-5--5-5-4-3-0-|-5/8-8-8-8-10-10-10-10-|

bridge:
e|-----------------------|---------------------|
B|-----------------------|---------------------|
G|-----------------------|---------------------|
D|-----------------------|---------------------|
A|-----------------------|---------------------|
E|-5-5---5-5-5---5-5-5---|-5/8--8-8--10--10-10-|
-|                       |                     |
e|-----------------------|---------------------|
B|-----------------------|---------------------|
G|-----------------------|---------------------|
D|-5-5-----5-5-----5-5---|---8--8-8--10--10-10-|
A|-5-5-----5-5-----5-5---|---8--8-8--10--10-10-|
E|-5-5-----5-5-----5-5---|---8--8-8--10--10-10-|

bridge 2:
e|-----------------------|---------------------|
B|-----------------------|---------------------|
G|-----------------------|---------------------|
D|-----------------------|---------------------|
A|-----------------------|---------------------|
E|-5-5-------------------|-5/8--8-8--10--10-10-|
-|                       |                     |
e|-----------------------|---------------------|
B|-----------------------|---------------------|
G|-----------------------|---------------------|
D|-5-5-------------------|---8--8-8--10--10-10-|
A|-5-5-------------------|---8--8-8--10--10-10-|
E|-5-5-------------------|---8--8-8--10--10-10-|

Order:
main riff x2
main riff 2 x3
riff 2 x2
main riff 3 x1
main riff x1
main riff 2 x3
riff 2 x2
keyboard fill
main riff 4 x1
bridge x2
bridge 2 x1
riff 2 x2
main riff 2 x2



| /  slide up
| \  slide down
| h  hammer-on
| p  pull-off
| ~  vibrato
| +  harmonic
| x  Mute note
===============================================================================
Добавлено: 29.04.2012
Другие материалы по этой песне:

Страница создана 29.04.2012
http://primanota.ru/rob-zombie/what-chords.htm
Привет, Гость.
Предлагаем пройти революционный курс по гитаре.
Подарок от PrimaNota.Ru, забирай!