PrimaNota.ru - самый крупный в мире бесплатный архив песенных текстов, аккордов, табулатур и нот


Rob Zombie - Pussy Liquor - текст песни, таба, бас-таба, видео

Регистрация Запомнить меня
Войти через:  Facebook Google Twitter Vk Yandex Mail.ru

Rob Zombie - Pussy Liquor - текст песни, таба, бас-таба, видео

Печатать
Просмотров: 515
Artist: Rob Zombie
Title: Pussy Liquor
Album: House Of 1000 Corpses Original Motion Picture Soundtrack (2002)
Label: Geffen Records

Dropped C Tuning
 ** I don't know if this is the official tuning used in the song, but this seems
fine to me.

The main bassline (chorus riff) sounds like a distorted bass with the guitar down in the
The guitar sounds like it's being played with that wah-wah thing, but I don't have that
I just tabbed the main structure of the riff; it's still fun to play even without the 
thing. :) I also tabbed the piano part (verse riff).

Fully tabbed by Goad.
If you have any questions or whatever, just leave a comment.

Music by Rob Zombie & Scott Humphrey
Lyrics by Rob Zombie

* = pinch harmonics
\ = slide down to lower note
x = mute note

Listen to the song for timing!!


INTRO -- fade in
D|-17*----------|-\13----------|
A|--------------|--------------|
F|--------------|--------------|
C|--------------|--------------|
G|--------------|--------------|
C|--------------|--------------|


CHORUS RIFF (bass arranged for guitar)
D|------------------|---------------|----------------|---------------|
A|------------------|---------------|----------------|---------------|
F|------------------|---------------|----------------|---------------|
C|------------------|---------------|----------------|---------------|
G|----1---3---1-----|---1---3---1---|------1---3--1--|---------------| x2
C|-5----5--------5--|-5---5---------|-0-5----5-------|-5-------------|


POST-CHORUS RIFF
D|------------------|---------------|----------------|---------------|
A|------------------|---------------|----------------|---------------|
F|------------------|---------------|----------------|---------------|
C|-5----------------|--------5-7--7-|-5--------------|---------------|
G|-x----------------|--------x-x--x-|-x--------------|---------------| x2
C|-5----------------|--------5-7--7-|-5--------------|---------------|


VERSE RIFF (piano arranged for guitar)
D|------------------|---------------|----------------|---------------|
A|------------------|---------------|----------------|---------------|
F|------------------|---------------|----------------|---------------|
C|-5----------------|-------5-10--8-|-5--------------|--------5-8--8-|
G|-5----------------|-------5-10--8-|-5--------------|--------5-8--8-| x3
C|-5----------------|-------5-10--8-|-5--------------|--------5-8--8-|

                                       "get fucked up and fuck up a-you"
D|------------------|---------------|----------------|---------------|
A|------------------|---------------|----------------|---------------|
F|------------------|---------------|----------------|---------------|
C|-5----------------|-------5-10--8-|-5--------------|---------------|
G|-5----------------|-------5-10--8-|-5--------------|---------------|
C|-5----------------|-------5-10--8-|-5--------------|---------------|


** Repeat CHORUS RIFF (x4)
** Repeat POST-CHORUS RIFF "yeah, we like to get fucked up..."
** Repeat VERSE RIFF
** Repeat CHORUS RIFF (x4)
** Repeat POST-CHORUS RIFF
** Repeat VERSE RIFF "..knows somethin' he won't tell..."
** Repeat CHORUS RIFF (x4) "PUSSY LIQUOR... MAKE YA SICK-A..."

THE END!
Добавлено: 02.05.2012
Другие материалы по этой песне:

Страница создана 15.04.2012
http://primanota.ru/rob-zombie/pussy-liquor-chords.htm
Привет, Гость.
Предлагаем пройти революционный курс по гитаре.
Подарок от PrimaNota.Ru, забирай!