PrimaNota.ru - самый крупный в мире бесплатный архив песенных текстов, аккордов, табулатур и нот


Rob Zombie - Dracula - таба, видео

Регистрация Запомнить меня
Войти через:  Facebook Google Twitter Vk Yandex Mail.ru

Rob Zombie - Dracula - таба, видео

Печатать
Просмотров: 232
Уроки эстрадного вокала в Санкт-Петербурге


Dragula Tab by Zombie Rob, www.Ultimate-Guitar.Com

this is a revised version of my previously posted tabs.  i came up
with these tabs when i downloaded the music video.  this is the
closest i could get to the way Riggs plays it without messing it up.
so......enjoy

use wah distorstion and cloudy distortion throughout the entire song

intro(optional)
e-------3---2
b5---4-------
g------------   x2
d------------
a------------
e------------

guitar intro
e-------------------------------------
b-------------------------------------
g-------------------------------------   x4
d-------------------------------------  
a14-14-14-14-14-15~~~14-14-14-14-14-14
e-------------------------------------

verse interlude
e----------------------------
b----------------------------
g----------------------------   x2
d4-4-4-4-4-(5)5-5-4-4-4-4-4-4
a----------------------------
e----------------------------

chorus
e----------------------------------
b----------------------------------
g----------------------------------
d20/--15---20/--15---20/--15------9
Добавлено: 18.11.2013
Другие материалы по этой песне:
  • Аккорды и текст

Страница создана 18.11.2013
http://primanota.ru/rob-zombie/dracula-chords.htm
Привет, Гость.
Предлагаем пройти революционный курс по гитаре.
Подарок от PrimaNota.Ru, забирай!