PrimaNota.ru - самый крупный в мире бесплатный архив песенных текстов, аккордов, табулатур и нот


Rob Zombie - Black sunshine remix - таба, видео

Регистрация Запомнить меня
Войти через:  Facebook Google Twitter Vk Yandex Mail.ru

Rob Zombie - Black sunshine remix - таба, видео

Печатать
Просмотров: 82


guitar intro
e-------------------------------------
b-------------------------------------
g-------------------------------------
d-------------------------------------
a-------3----------------3------------
e-0-----1-----0------0-1-1-----0------

e-------------------------------------
b-------------------------------------
g-------------------------------------
d-------------------------------------
a-----------------------3-------------
e-1-----0-----------0-1-1-------------

     Sorry thats all I know. I'll get
  the rest A.S.A.P.

Добавлено: 21.09.2013
Другие материалы по этой песне:
  • Аккорды и текст

Страница создана 21.09.2013
http://primanota.ru/rob-zombie/black-sunshine-remix-chords.htm
Привет, Гость.
Предлагаем пройти революционный курс по гитаре.
Подарок от PrimaNota.Ru, забирай!