PrimaNota.ru - самый крупный в мире бесплатный архив песенных текстов, аккордов, табулатур и нот


Rob Zombie - Teenage Nosferatu Pussy - таба, видео

Регистрация Запомнить меня
Войти через:  Facebook Google Twitter Vk Yandex Mail.ru

Rob Zombie - Teenage Nosferatu Pussy - таба, видео

Печатать
Просмотров: 182
Tuning: C# Standard, not C!

Note: I don't know the solo, don't ask for it. If you want it, tab it out and I'll give you credit
So this is a killer song from Mr. Zombie that hasn't been tabbed, let's get to it!
                          
//: Slide Up
\\: Slide Down
*: Palm Mute
|-3-|: Triplet

Intro 1a: 3x            |-3-|
c# [-----------------------------]
G# [-----------------------------]
E  [-----------------------------]
B  [2-2-6-9-7-6-2-2-2-2-2-2-2-2-2]
F# [2-2-6-9-7-6-2-2-2-2-2-2-2-2-2]
C# [0-0-4-7-5-4-0-0-0-0-0-0-0-0-0]
    * *         * * * * * * * * *

Intro 1b: 1x
c# [---------------------]
G# [---------------------]
E  [---------------------]
B  [2-2-6-9-7-6-2-2-2-2-2]
F# [2-2-6-9-7-6-2-2-2-2-2]
C# [0-0-4-7-5-4-0-0-0-0-0]
    * *         * * * * *

Pre-Verse: Just keep hitting this chord over and over again until the verse
c# [---]
G# [---]
E  [---]
B  [2-2]
F# [2-2]
C# [0-0]
    * *
Verse 1a: 1x
c# [-------]
G# [-------]
E  [-------]
B  [9-9-8//]
F# [9-9-8//]
C# [7-7-6//]

Verse 1b: This is just like the pre-verse
c# [---]
G# [---]
E  [---]
B  [2-2]
F# [2-2]
C# [0-0]
    * *

Pre-Chorus: 4x
c# [-----]
G# [-----]
E  [-----]
B  [5-5\\]
F# [5-5\\]
C# [3-3\\]

Chorus: 4x                      |-3-|
c# [---------------------------------]
G# [---------------------------------]
E  [---------------------------------]
B  [2-2-9-8-2-2-9-8-2-2-9-8-2-2-2-2-2]
F# [2-2-9-8-2-2-9-8-2-2-9-8-2-2-2-2-2]
C# [0-0-7-6-0-0-7-6-0-0-7-6-0-0-0-0-0]
    * *     * *     * *     * * * * *

Repeat intro 1a one time and 1b one time

Verse 2 is the same except now do verse 1b before and after 1a

Chorus 4x again

Pre-Solo: 8x on the 8th time don't palm mute
c# [----------------]
G# [----------------]
E  [----------------]
B  [6-7-6-7-6-7-10-9]
F# [6-7-6-7-6-7-10-9]
C# [4-5-4-5-4-5-8--7]
    * * * * * * *  *
Solo: Intro 1a 4x 

Verse 3 is the same as 1 and 2 but throw triplets into the E power chords

Pre-Chorus: 4x This is a little different
c# [---------]
G# [---------]
E  [---------]
B  [2-2-2-5//]
F# [2-2-2-5//]
C# [0-0-0-3//]
    * * * 
Chorus 4x
Добавлено: 08.08.2015
Другие материалы по этой песне:
  • Аккорды и текст

Страница создана 08.08.2015
http://primanota.ru/rob-zombie/teenage-nosferatu-pussy-chords.htm
Привет, Гость.
Предлагаем пройти революционный курс по гитаре.
Подарок от PrimaNota.Ru, забирай!