PrimaNota.ru - самый крупный в мире бесплатный архив песенных текстов, аккордов, табулатур и нот


Riverside - Escalator Shrine - таба, бас-таба, видео

Регистрация Запомнить меня
Войти через:  Facebook Google Twitter Vk Yandex Mail.ru

Riverside - Escalator Shrine - таба, бас-таба, видео

Печатать
Просмотров: 83
Авторы музыки: Riverside
Авторы текста: Mariusz Duda
1:57 (the riff reoccurs many times between 1:57 and 4:33)

e------------------------------------------|------------------------------------|
B------------------------------------------|------------------------------------|
G---5s7-5s7---7-5--------------------------|-5s7-5s7---7-5----------------------|
D-----------------7-5-0-3-5-5--------------|---------------7-5-0-3-5-5----------|   
A-----------------------------0-3-0-3-5-5--|---------------------------0-3-5-5--|
E------------------------------------------|------------------------------------|


6:20

e-----------------------------------------|
B-----------------------------------------|
G------3-----7----------------------------|
D---2--3--2--7--2--3--2-------------------|  
A---2--1--2--5--2--3--2-------------------|
E---0-----0-----0--1--0-------------------|
          
e-----------------------------------------|
B-----------------------------------------|
G------3-----7-----------7----------------|
D---2--3--2--7--2--3--2--7----------------|  
A---2--1--2--5--2--3--2--5----------------|
E---0-----0-----0--1--0-------------------|     

e-----------------------------------------|
B-----------------------------------------|
G------3-----7----------------------------|
D---2--3--2--7--2--3--2-------------------|  
A---2--1--2--5--2--3--2-------------------|
E---0-----0-----0--1--0-------------------|
          
e-----------------------------------------|
B-----------------------------------------|
G------3-----7-----------7--------7-------|
D---2--3--2--7--2--3--2--7-----3--7--2----|  
A---2--1--2--5--2--3--2--5-----3--5--2----|
E---0-----0-----0--1--0--------1-----0----|      


7:46


e--7--------------------------------------|
B-------8-------8-------------------------|
G----9----7--9----------------------------|
D-----------------------------------------|  
A-----------------------------------------|
E-----------------------------------------| x4


e--6--------------------------------------|
B-------8-------8-------------------------|
G----9----7--9----------------------------|
D-----------------------------------------|  
A-----------------------------------------|
E-----------------------------------------| x4

e--7--------------------------------------|
B-------8-------8-------------------------|
G----9----7--9----------------------------|
D-----------------------------------------|  
A-----------------------------------------|
E-----------------------------------------| x4


e--6--------------------------------------|
B-------8-------8-------------------------|
G----9----7--9----------------------------|
D-----------------------------------------|  
A-----------------------------------------|
E-----------------------------------------| x4


8:07


e--8--------------------------------------|
B-------9---------9-----------------------|
G----10----8--10--------------------------|
D-----------------------------------------|  
A-----------------------------------------|
E-----------------------------------------| x4


e--7--------------------------------------|
B-------9---------9-----------------------|
G----10----8--10--------------------------|
D-----------------------------------------|  
A-----------------------------------------|
E-----------------------------------------| x4

e--8--------------------------------------|
B-------9---------9-----------------------|
G----10----8--10--------------------------|
D-----------------------------------------|  
A-----------------------------------------|
E-----------------------------------------| x4



e--7--------------------------------------|
B-------9---------9-----------------------|
G----10----8--10--------------------------|
D-----------------------------------------|  
A-----------------------------------------|
E-----------------------------------------| x4


10:35


e---------------------------------------------------------|
B---------------------------------------------------------|
G---------------------------------------------------------|
D---------------------------------------------------------|  
A---------------6-------4--6----------------6-------------|
E---6--9--6--8-----6-8---------6--9--6--8-------6---------|  a lot of times
                 PM.........
Добавлено: 24.08.2015
Другие материалы по этой песне:
  • Аккорды и текст

Страница создана 18.09.2014
http://primanota.ru/riverside/escalator-shrine-chords.htm
Привет, Гость.
Предлагаем пройти революционный курс по гитаре.
Подарок от PrimaNota.Ru, забирай!