PrimaNota.ru - самый крупный в мире бесплатный архив песенных текстов, аккордов, табулатур и нот


Riverside - Feel Like Falling - таба, видео

Регистрация Запомнить меня
Войти через:  Facebook Google Twitter Vk Yandex Mail.ru

Riverside - Feel Like Falling - таба, видео

Печатать
Просмотров: 171
Уроки эстрадного вокала в Санкт-Петербурге
Авторы музыки: Riverside
Авторы текста: Mariusz Duda
-------------------------------------------------------------------------------
                             FEEL LIKE FALLING - Riverside
-------------------------------------------------------------------------------
Tabbed by: Dave Lawrence
E-mail: dlawrence03@adrian.edu

Tuning: Standard

VERSE
e|---------------------------------------------------------------------------|
B|---------------------------------------------------------------------------|
G|----9-----------------------9----------------------------------------------|
D|------7-7---------------------7-7------------------------------------------|
A|---------------------------------------------------------------------------|
E|--0------------5~~-------0-------------------------------------------------|

Chords during the verse are E-D-A


"Falling into blank space" lick (x2)

e|--7--5-5-4-5-4-------------------------------------------------------------|
B|---------------------------------------------------------------------------|
G|---------------------------------------------------------------------------|
D|---------------------------------------------------------------------------|
A|---------------------------------------------------------------------------|
E|---------------------------------------------------------------------------|

CHORUS  Repeatx3      1st           2nd           3rd            End with...
e|-----------------|------------|-------------|----------------|-------------|
B|----0-2-5--3---5-|--2b3b2b3b2-|-------------|--2b3b2b3b2br0~~|-------------|
G|--2--------------|------------|--1b2b1b2b1--|----------------|-1-2~1-2-1---|
D|-----------------|------------|-------------|----------------|-----------2-|
A|-----------------|------------|-------------|----------------|-------------|
E|-----------------|------------|-------------|----------------|-------------|

Chords during chorus are D-A-E


CHORUS-ENDING LICK
e|---------------------------------------------------------------------------|
B|-----12-14-17--15--17~~----------------------------------------------------|
G|--14-----------------------------------------------------------------------|
D|---------------------------------------------------------------------------|
A|---------------------------------------------------------------------------|
E|---------------------------------------------------------------------------|

BRIDGE / ENDING ("C'mon!")

    E    E           E    D  A
e|---------------------------------------------------------------------------|
B|---------------------------------------------------------------------------|
G|------------------------7--------------------------------------------------|
D|--2----2-----------2----7--7-----------------------------------------------|
A|--2----2-----------2----5--7-----------------------------------------------|
E|--0-3b-0---5-3-5-3-0-------5-----------------------------------------------|

Palm mute that during the ending riff

Can also play that 5-3-5-3 as...
e|---------------------------------------------------------------------------|
B|---------------------------------------------------------------------------|
G|--2-0-2-0------------------------------------------------------------------|
D|--2-0-2-0------------------------------------------------------------------|
A|---------------------------------------------------------------------------|
E|---------------------------------------------------------------------------|


Fun song to play, and damned catchy. 


************************************

| /   slide up
| \   slide down
| h   hammer-on
| p   pull-off
| ~   vibrato
| +   harmonic
| x   Mute note
| b   Bend
| pb  Pre-bend
| br  Bend release
| pbr Pre-bend release
| brb Bend release bend

************************************
Добавлено: 05.08.2015
Другие материалы по этой песне:
  • Аккорды и текст

Страница создана 05.08.2015
http://primanota.ru/riverside/feel-like-falling-chords.htm
Привет, Гость.
Предлагаем пройти революционный курс по гитаре.
Подарок от PrimaNota.Ru, забирай!