PrimaNota.ru - самый крупный в мире бесплатный архив песенных текстов, аккордов, табулатур и нот


Riverside - Deprived Irretrievably Lost Imagination - аккорды и текст, видео

Регистрация Запомнить меня
Войти через:  Facebook Google Twitter Vk Yandex Mail.ru

Riverside - Deprived Irretrievably Lost Imagination - аккорды и текст, видео

Печатать
Просмотров: 58
Авторы музыки: Riverside
Авторы текста: Mariusz Duda
Deprived Irretrievably Lost Imagination
Riverside
   b = 68...70
   t.s = 6/8                         first time...                     second time...
e |----------------3----------------|----------------------------------|---------------------------------2--|
B |-----3-----3------3_4_3----------|----2------2-----------2----2-----|----2------2-----------2----2-------|
G |--3---3-2---2----------------(x2)|--2---2-2---2-2---------2-----(x2)|---2---2-2---2-2---------2----------|
D |---------------------------------|----------------------------------|------------------------------------|
A |---------------------------------|----------------------------------|------------------------------------|
E |---------------------------------|----------------------------------|------------------------------------|
* you can also play chords as the way these are in arpeggios...

Gm                          F#m
I live surrounded by cherished memories
Gm                          F#m
I have a weakness for collecting them... Alphabetize
Gm                          F#m
As far as I recall my childish rituals
Gm                          F#m
Icons of that world always filled my shelves and heart

Bm              
Now I shelter from the rain
A
Hole up in my cage
Bm
You don't have to think too much today
A
They filled in for your brain

G                    F#m
Curled up - Deprived
Bm                    A
Curled up - Deprived
G                F#
I shut away

Bass:

G|---------------------------------------------------------------------------|
D|---------------------------------------------------------------------------|
A|--------------4/5------5---------------------------------------------------|
E|----0---2-------------------------5--------2-------------------------------|

keyboard Solo Chords: Gm F#m (x2)

Gm                                   F#m
In a world of synonyms... and handwritten notes
Gm                                             F#m
My own puppet performances..Endless bedtime stories
Gm                                             F#m
I could touch the moon....and switch off the sun
Gm                                             F#m
I could have my dreams...and dream about better times

Bm  
Now I shelter from the rain
A
Hole up in my cage
Bm  
You don't have to think too much today
Bm  
They filled in for your brain

G                    F#m
Curled up - Deprived
Bm                    A
Curled up - Deprived
G                F#
I shut away

Bass: 

G|---------------------------------------------------------------------------|
D|---------------------------------------------------------------------------|
A|--------------4/5------5---------------------------------------------------|
E|----0---2-------------------------5--------2-------------------------------|

guitar:

e|------10----7----9--------------------7----------------9-------------------|
B|---------------------------------------------7-----------------------------|
G|---------------------------------------------------------------------------|
D|---------------------------------------------------------------------------|
A|---------------------------------------------------------------------------|
E|---------------------------------------------------------------------------|

Chords Power 8th :     D -> C -> F -> C
twin part :

e|---------------------------------------------------------------------------|
B|---------------------------------------------------------------------------|
G|---------------------------------------------------------------------------|
D|-----------7----7---7----5--7-----------7----7---7-------5-----------------|
A|-------5----------5----8------------5----------5------8----8---------------|
E|---------------------------------------------------------------------------|

Bass Chords (also can be played with guitar): | Gm Am F Bb | Again Twin part... (such a amazing song)
Solo Chords: Gm Am F Bb | F G E A... F G E A...G (8th)
Sax Solo Chords: Gm F#m (x6) Bm A Bm A F.......

G                    F#m
Curled up - Deprived
Bm                    A
Curled up - Deprived
G                F#
I shut away
                         ...Bm
Please don't call my name :)
(Thank you riverside...)
Добавлено: 24.08.2015
Другие материалы по этой песне:
  • Аккорды и текст

Страница создана 24.08.2015
http://primanota.ru/riverside/deprived-irretrievably-lost-imagination-chords.htm
Привет, Гость.
Предлагаем пройти революционный курс по гитаре.
Подарок от PrimaNota.Ru, забирай!