PrimaNota.ru - самый крупный в мире бесплатный архив песенных текстов, аккордов, табулатур и нот


Riverside - Afloat - бас-таба, видео

Регистрация Запомнить меня
Войти через:  Facebook Google Twitter Vk Yandex Mail.ru

Riverside - Afloat - бас-таба, видео

Печатать
Просмотров: 48
Авторы музыки: Mariusz Duda
Авторы текста: Mariusz Duda
Song: Afloat
Album: Love, Fear and the Time Machine
Band: Riverside
Tuning: Standard
Right-hand style: I am pretty sure Mariusz uses a pick to play this, but classical 
guitar fingering also works.

~ = Let ring
h = Hammer-on
p = Pull-off
/ = Slide up
\ = Slide Down

0:00
G ------10-10~--9-9~-----10-10~--9h10p9--------10-10~---9-9~-------10-10~--9h10p9--------------|
D -0~---------0~----0~---------0~--------5/7~---------7~----7h8~---------8~--------------------|
A ---------------------------------------------------------------------------------------------|
E ---------------------------------------------------------------------------------------------|

G ------10-10~--9-9~-----10-10~--9h10p9--------10-10~---9-9~-------10-10~--9h10p9--------------|
D -0~---------0~----0~---------0~--------5/7~---------7~----7h8~---------8~--------------------|
A ---------------------------------------------------------------------------------------------|
E ---------------------------------------------------------------------------------------------|

                    "Dream on..."     "my pain..."
G ------10-10~--9-9~-----10-10~--9h10p9--------10-10~---9-9~-------10-10~--9h10p9--------------|
D -0~---------0~----0~---------0~--------5/7~---------7~----7h8~---------8~--------------------|
A ---------------------------------------------------------------------------------------------|
E ---------------------------------------------------------------------------------------------|

                    "My scar..."      "My blame..."
G ------10-10~--9-9~-----10-10~--9h10p9--------10-10~---9-9~-------10-10~--9h10p9--------------|
D -0~---------0~----0~---------0~--------5/7~---------7~----7h8~---------8~--------------------|
A ---------------------------------------------------------------------------------------------|
E ---------------------------------------------------------------------------------------------|

0:42                       "You've been a part of me..."
G ---------12-12~----10-10~------12-12~---10h12p10~--------10-10~--9-9~-----10-10~--9h10p9-----|
D -8/10~---------10~-------10~---------10~------------0~---------0~----0~---------0~-----------|
A ---------------------------------------------------------------------------------------------|
E ---------------------------------------------------------------------------------------------|

                           "Unless and until..."
G ---------12-12~----10-10~------12-12~---10h12p10--------10-10~--9-9~-------------------------|
D -8/10~---------10~-------10~---------10~---------7h8~---------8~-----------------------------|
A ---------------------------------------------------------------------------------------------|
E ---------------------------------------------------------------------------------------------|

                    "Dreamt by the night..."
G ------10-10~--9-9~-----10-10~--9h10p9--------10-10~---9-9~-------10-10~--9h10p9--------------|
D -0~---------0~----0~---------0~--------5/7~---------7~----7h8~---------8~--------------------|
A ---------------------------------------------------------------------------------------------|
E ---------------------------------------------------------------------------------------------|

                    "Under your skin..."
G ------10-10~--9-9~-----10-10~--9h10p9--------10-10~---9-9~-------10-10~--9h10p9--------------|
D -0~---------0~----0~---------0~--------5/7~---------7~----7h8~---------8~--------------------|
A ---------------------------------------------------------------------------------------------|
E ---------------------------------------------------------------------------------------------|

1:22                       "I run through the wind..."
G ---------12-12~----10-10~------12-12~---10h12p10~--------10-10~--9-9~-----10-10~--9h10p9-----|
D -8/10~---------10~-------10~---------10~------------0~---------0~----0~---------0~-----------|
A ---------------------------------------------------------------------------------------------|
E ---------------------------------------------------------------------------------------------|

                           "Unless and until..."
G ---------12-12~----10-10~------12-12~---10h12p10--------10-10~--9-9~-------------------------|
D -8/10~---------10~-------10~---------10~---------7h8~---------8~-----------------------------|
A ---------------------------------------------------------------------------------------------|
E ---------------------------------------------------------------------------------------------|

                   [Acoustic Guitar Starts]
G ------10-10~--9-9~-----10-10~--9h10p9--------10-10~---9-9~-------10-10~--9h10p9--------------|
D -0~---------0~----0~---------0~--------5/7~---------7~----7h8~---------8~--------------------|
A ---------------------------------------------------------------------------------------------|
E ---------------------------------------------------------------------------------------------|

G ------10-10~--9-9~-----10-10~--9h10p9--------10-10~---9-9~-------10-10~--9h10p9--------------|
D -0~---------0~----0~---------0~--------5/7~---------7~----7h8~---------8~--------------------|
A ---------------------------------------------------------------------------------------------|
E ---------------------------------------------------------------------------------------------|

2:02
G ---------12-12~----10-10~------12-12~---10h12p10~--------10-10~--9-9~-----10-10~--9h10p9-----|
D -8/10~---------10~-------10~---------10~------------0~---------0~----0~---------0~-----------|
A ---------------------------------------------------------------------------------------------|
E ---------------------------------------------------------------------------------------------|

G ---------12-12~----10-10~------12-12~---10h12p10--------10-10~--9-9~-------------------------|
D -8/10~---------10~-------10~---------10~---------7h8~---------8~-----------------------------|
A ---------------------------------------------------------------------------------------------|
E ---------------------------------------------------------------------------------------------|

                    "Dream on..."     "my pain..."
G ------10-10~--9-9~-----10-10~--9h10p9--------10-10~---9-9~-------10-10~--9h10p9--------------|
D -0~---------0~----0~---------0~--------5/7~---------7~----7h8~---------8~--------------------|
A ---------------------------------------------------------------------------------------------|
E ---------------------------------------------------------------------------------------------|

              "My scar..."      "My thorn..."
G ------10-10~--9-9~-----10-10~--9h10p9--------10-10~---9-9~-------10-10~--9h10p9--------------|
D -0~---------0~----0~---------0~--------5/7~---------7~----7h8~---------8~--------------------|
A ---------------------------------------------------------------------------------------------|
E ---------------------------------------------------------------------------------------------|

2:42                       "You've been a part of me..."
G ---------12-12~----10-10~------12-12~---10h12p10~--------10-10~--9-9~-----10-10~--9h10p9-----|
D -8/10~---------10~-------10~---------10~------------0~---------0~----0~---------0~-----------|
A ---------------------------------------------------------------------------------------------|
E ---------------------------------------------------------------------------------------------|

                           "Let me stay afloat..."
G ---------12-12~----10-10~------12-12~---10h12p10--------10-10~--9-9~-------------------------|
D -8/10~---------10~-------10~---------10~---------7h8~---------8~-----------------------------|
A ---------------------------------------------------------------------------------------------|
E ---------------------------------------------------------------------------------------------|

G ---------------------------------------------------------------------------------------------|
D -0~~~~~~~~~~~~~~~~~--------------------------------------------------------------------------|
A ---------------------------------------------------------------------------------------------|
E ---------------------------------------------------------------------------------------------|
Добавлено: 30.03.2016
Другие материалы по этой песне:
  • Аккорды и текст

Страница создана 30.03.2016
http://primanota.ru/riverside/afloat-chords.htm
Привет, Гость.
Предлагаем пройти революционный курс по гитаре.
Подарок от PrimaNota.Ru, забирай!