PrimaNota.ru - самый крупный в мире бесплатный архив песенных текстов, аккордов, табулатур и нот


Riverside - Coda - таба, видео

Регистрация Запомнить меня
Войти через:  Facebook Google Twitter Vk Yandex Mail.ru

Riverside - Coda - таба, видео

Печатать
Просмотров: 65
Авторы музыки: Riverside
Авторы текста: Mariusz Duda
-------------------------------------------------------------------------------
                             CODA - Riverside
-------------------------------------------------------------------------------
Tabbed by:GLQ

I saw the tab pro version of this track ad it was absurd the stretch needed, 
so I decided to post this simplified version, same notes, different position. 
Enjoy

Tuning: standard

e|----0--0------0--0------0--0------0--0-------------------------------------|
B|---0-0--0----0-0--0----0-0--0----0-0--0------------------------------------|
G|---------------------------------------------------------------------------|
D|-2---------0-------------------2-------------------------------------------|
A|---------------------0-----------------------------------------------------|
E|---------------------------------------------------------------------------|




************************************

| /   slide up
| \   slide down
| h   hammer-on
| p   pull-off
| ~   vibrato
| +   harmonic
| x   Mute note
| b   Bend
| pb  Pre-bend
| br  Bend release
| pbr Pre-bend release
| brb Bend release bend

************************************
Добавлено: 29.10.2014
Другие материалы по этой песне:

Страница создана 29.10.2013
http://primanota.ru/riverside/coda-chords.htm
Привет, Гость.
Предлагаем пройти революционный курс по гитаре.
Подарок от PrimaNota.Ru, забирай!