PrimaNota.ru - самый крупный в мире бесплатный архив песенных текстов, аккордов, табулатур и нот


Pod - Greetings - аккорды и текст, бас-таба, драм-таба, видео

Регистрация Запомнить меня
Войти через:  Facebook Google Twitter Vk Yandex Mail.ru

Pod - Greetings - аккорды и текст, бас-таба, драм-таба, видео

Печатать
Просмотров: 172
Greetings
Pod
Dropped D tuning

Main Part:	[E------------------
B-------------3----
G----------2----2--
D------0-----------
A---0--------------
D-0----------------]

Bass:		[G-------------
D-------------
A-------------
E-0~---3--2---]

Then: After Sonny says "We come to ya... with authority..." Marcos is playing some leads
[E-2~---3~---2~---3~---2~---2~-----0--------------------------2---2h3p2-----------
B--------------------------------------------3----2--------2--3------------------
G--------------------------------------------------------------------------------
D------------------------------------------------------0-------------------------]
Добавлено: 31.01.2014
Другие материалы по этой песне:
  • Аккорды и текст

Страница создана 16.04.2012
http://primanota.ru/pod/greetings-chords.htm
Привет, Гость.
Предлагаем пройти революционный курс по гитаре.
Подарок от PrimaNota.Ru, забирай!