PrimaNota.ru - самый крупный в мире бесплатный архив песенных текстов, аккордов, табулатур и нот


Pod - Alive - аккорды и текст, таба, драм-таба, перевод, видео

Регистрация Запомнить меня
Войти через:  Facebook Google Twitter Vk Yandex Mail.ru

Pod - Alive - аккорды и текст, таба, драм-таба, перевод, видео

Печатать
Просмотров: 1089
Уроки эстрадного вокала в Санкт-Петербурге
Авторы: Sonny Sandoval, Noah "Wuv" Bernardo, Marcos Curiel, Traa Daniels

Alive
Pod
Band: P.O.D  
Tabed By: Jeff Harding   (username: BlindLXD) Poo_poo_punk@hotmail.com


Riff1 (Intro/verse)
E-------------------------------------
A-------------------------------------
F-----------2222-55555555-5555--------
C--222-0-2--2222-55555555-5555-555----
G--222-0-2--0000-33333333-3333-555----
C--222-0-2---------------------555----
   



(Chorus)
E----------------2---------|------------------------------|
A----------------3---------|------------------------------|
F--0-------------0---------|------------------------------|
C--x-------------x---------|--2-2-2-2-5-5-5-4--4--4--4--0-|
G--3-3-3-3-3-3-3-3---------|--2-2-2-2-2-2-2-2--2--2--2--0-|
C--------------------------|--2-2-2-2-2-2-2-2--2--2--2--0-|

E--------------------------------|-----------------------------------|
A--------------------------------|-----------------------------------|
F--------------------------------|------------------12119-11-9-7---|
C--5-5-5-5-5-5-5-5-5-5-5-5-5-----|--5-5-5-5-5-5-5-5------------------|
G--5-5-5-5-5-5-5-5-5-5-5-5-5-----|--5-5-5-5-5-5-5-5-109-7/9--7/5h0-|
C--5-5-5-5-5-5-5-5-5-5-5-5-5-0---|--5-5-5-5-5-5-5-5------------------|




solo
--------------------|--------------------|
--------------------|--------------------|
-----------------0--|--------------------|
--2-----------------|--4------0----------|
--------------------|--------------------|
--------------------|--------------------|

--14h15h14--15h14--15h14--15h14--15h14--|--15h14--15h14--15h14--15h14--15h14h15h14h15-|
----------------------------------------|---------------------------------------------|
----------------------------------------|---------------------------------------------|
----------------------------------------|---------------------------------------------|
----------------------------------------|---------------------------------------------|
----------------------------------------|---------------------------------------------|

--------------------|--------------------|
--------------------|--------------------|
-----------------0--|--------------------|
--2-----------------|--4------0----------|
--------------------|--------------------|
--------------------|--------------------|

--0-----------------|--------------------|
--0-----------------|--------------------|
--0-----------------|--------------------|
--------------------|--------------------|
-----------x--------|--x--------x--------|
--------------------|--------------------|


E-----------------------------|
A-----------------------------|
F-----------------------------|
C--2-2-2-0-2-----2-2-0-2-0-2--|
G--2-2-2-0-2-----2-2-0-2-0-2--|
C--2-2-2-0-2-----2-2-0-2-0-2--|


ENJOI   
Добавлено: 28.04.2012
Другие материалы по этой песне:

Страница создана 01.03.2012
http://primanota.ru/pod/alive-chords.htm
Привет, Гость.
Предлагаем пройти революционный курс по гитаре.
Подарок от PrimaNota.Ru, забирай!