PrimaNota.ru - самый крупный в мире бесплатный архив песенных текстов, аккордов, табулатур и нот


Pod - Hollywood - аккорды и текст, таба, бас-таба, видео

Регистрация Запомнить меня
Войти через:  Facebook Google Twitter Vk Yandex Mail.ru

Pod - Hollywood - аккорды и текст, таба, бас-таба, видео

Печатать
Просмотров: 211
Hollywood
Pod
Dropped D tuning

Intro:		I don't have a clue.

Verse: 4x
[E-----------------------------
B-----------------------------
G---------7~-------5-7--------
D----7-5-----------------7----
A-----------------------------
D-0------------0--------------]

Guitar 2
Verse: 4x
[E----------10~--8-10----------
B---10-8----------------10----
G-----------------------------
D-----------------------------
A-----------------------------
D-0-------------0-------------]

Chorus:
[E----------------------------------
B----------------------------------
G---------7b(8)-------5-7----------
D-0--7-5----------0---------7b-----
A-0----------------0---------------
D-0----------------0---------------]

Guitar 2
Chorus:
[E----------10b(11)-----8-10----------
B---10-8-----------------------10b---
G------------------------------------
D-0------------------0---------------
A-0------------------0---------------
D-0------------------0---------------]

Verse
Chorus

Let chorus fade out.

Bridge: Palm mute until it's gets heavy ("You'll never get the best of me...")
[E----------------------------
B----------------------------
G----------6-5---5-4----7----
D-0-0--0------0------0-------
A-0-0--0-4-3-0-3-2-0-5-------
D-0-0--0------0------0-------]
Or
[E----------------------------------
B----------------------------------
G----------------------------------
D-0-0--0-11-10-0-10-9-0-12---------
A-0-0--0-11-10-0-10-9-0-12---------
D-0-0--0-11-10-0-10-9-0-12---------]

Verse
Chorus
Добавлено: 25.11.2013
Другие материалы по этой песне:
  • Аккорды и текст

Страница создана 01.03.2012
http://primanota.ru/pod/hollywood-chords.htm
Привет, Гость.
Предлагаем пройти революционный курс по гитаре.
Подарок от PrimaNota.Ru, забирай!