PrimaNota.ru - самый крупный в мире бесплатный архив песенных текстов, аккордов, табулатур и нот


Pod - Guitarras De Amor - аккорды и текст, таба, видео

Регистрация Запомнить меня
Войти через:  Facebook Google Twitter Vk Yandex Mail.ru

Pod - Guitarras De Amor - аккорды и текст, таба, видео

Печатать
Просмотров: 216
Guitarras De Amor
Pod
[-----------------------------------------------
-----------------------------------------------
--4~--5~--4--4-4--7--7-7--5-5--4-4--5-5--
----------------------------------------------- } 2x
-----------------------------------------------
-----------------------------------------------

---------------------------------------------------------------------------------------------
--12~-12--12-12--13--13-13h15-15h13-13h12--13-12-10~-10-12-13-12-10-12-10-8~
---------------------------------------------------------------------------------------------
---------------------------------------------------------------------------------------------
---------------------------------------------------------------------------------------------
---------------------------------------------------------------------------------------------

----------------------------------------------------------------------------------------------------------
--12~~13~~12-13-15-15~~13~~12h13~~12-10~~10-10-8-8-6-6-5----5-6-8-6-5-3-5h6------------
-----------------------------------------------------------------------------------------------3h2-2h3h2
----------------------------------------------------------------------------------------------------------
----------------------------------------------------------------------------------------------------------
----------------------------------------------------------------------------------------------------------]

2nd guitar (not sure)
[---------------------------------3-----------------------
----0---------------------------0-4----------------------
---3--3---3-------------------3---3---------------------
--3----3-3-------------------3-----3--------------------
-1------1------------------------------------------------
----------------------------------------------------------]
Добавлено: 13.12.2013
Другие материалы по этой песне:
  • Аккорды и текст

Страница создана 17.04.2012
http://primanota.ru/pod/guitarras-de-amor-chords.htm
Привет, Гость.
Предлагаем пройти революционный курс по гитаре.
Подарок от PrimaNota.Ru, забирай!