PrimaNota.ru - самый крупный в мире бесплатный архив песенных текстов, аккордов, табулатур и нот


Pod - Goodbye For Now - текст песни, таба, бас-таба, видео

Регистрация Запомнить меня
Войти через:  Facebook Google Twitter Vk Yandex Mail.ru

Pod - Goodbye For Now - текст песни, таба, бас-таба, видео

Печатать
Просмотров: 827
I hered this song on my girl's cd and it got me hooked...
the intro goes like this...

e]---------------------------]------------------]-7h8p7-5-7-----]
B]---------------------------]------------------]---------------]
G]---------------------------]------------------]---------------]
D]---9--9-9------12----12--12]---10--10-10--9--9]---------------]
A]--7--7-7--10-10----10--10--]--7---7--7---7--7-]---------------]
E]-0--0------------12--------]-8---8------5--5--]---------------]

then it procedes using the chord pattern: E-G-C-A then make's a little fill in. it just 
over and over through the whole song...
   E    G    C    A
e]----]----]----]---]-7h8p7-5-7-]
B]----]----]----]---]-----------]
G]-9--]-12-]-9--]-6-]-----------]
D]-9--]-12-]-10-]-9-]-----------]
A]-7--]-10-]-7--]-7-]-----------]
E]-0--]-0--]-8--]-5-]-----------]

just listen to the song to get the right timing...^_^
Добавлено: 23.06.2012
Другие материалы по этой песне:

Страница создана 09.03.2012
http://primanota.ru/pod/goodbye-for-now-chords.htm
Привет, Гость.
Предлагаем пройти революционный курс по гитаре.
Подарок от PrimaNota.Ru, забирай!