PrimaNota.ru - самый крупный в мире бесплатный архив песенных текстов, аккордов, табулатур и нот


Pino Daniele - Questa Primavera - таба, видео

Регистрация Запомнить меня
Войти через:  Facebook Google Twitter Vk Yandex Mail.ru

Pino Daniele - Questa Primavera - таба, видео

Печатать
Просмотров: 89
======================================================================

                 Q U E S T A    P R I M A V E R A

     Album        : Che Dio ti Benedica
     Autore       : Pino Daniele

     Trascrizione : C h r i s  ' 7 6   ciacca@tin.it>

======================================================================


Intro :

[Strum] = vuol dire che l'accordo precedente deve essere
          _pennato_ (ritmo swing) fino a giungere all'accordo
          successivo che deve essere pennato solo una volta dall'alto
          verso il basso.

[Ritmo Swing]

                     Am7/9         D7/9
e||----0-----2---0--3---3------------0-------0--2-------------------|
B||--0-----4------------1------------1-----0---------3--1-----0--0--|
G||---------------------0---[Strum]--2---0-----------------3--------|
D||---------------------2------------0------------------------------|
A||---------------------0-------------------------------------------|
E||-----------------------------------------------------------------|

    G7+          G6                             Am7           B7
e|---2-----------7------0--1--0------------------0-------------2---|
B|---3-----------6----0----------3--1-----0--0---1-------------4---|
G|---4--[Strum]--7--0------------------3---------0---[Strum]---2---|
D|---5-------------------------------------------2-------------4---|
A|-----------------------------------------------0-------------2---|
E|-----------------------------------------------------------------|


e|-------------------2---4---3---2--------------------||
B|---------------4-------------------3----4----4------||
G|------------4---------------------------------------||
D|-----1---4------------------------------------------||
A|--2-------------------------------------------------||
E|----------------------------------------------------||
           -barrè-


[FINE INTRO]



A breve il CRD .   ;))))


Commenti e suggerimenti bene accetti.





Ciao da

---------------------------
CHRIS '76 il PATETICO
---------------------------
ciacca@tin.it
ICQ # 33921489
---------------------------



========
From: "Francesco Zurolo"  frazur@libero.it>
Date: Sun, 5 Sep 1999 12:58:42 +0200
--------
                               Questa primavera


                                   Pino daniele

12/8
INTRO:

                                     A7sus2
E||---------------0-------2----0--|--3------------------------|
B||------------0-------4----------|--0------------------------|
G||-------------------------------|--2------------------------|
D||-------------------------------|--2------------------------|
A||-------------------------------|--0------------------------|
E||-------------------------------|---------------------------|


                                    G7M
------------0--2-----------------|--2-------------------------|
---------0--------------3--1-----|--3----0~-------------------|
------0-----------------------2--|--4-------------------------|
---------------------------------|--5-------------------------|
---------------------------------|----------------------------|
---------------------------------|----------------------------|


                                     Am7
---------------1------0-----------|--0------------------------|
---------0--3------------3r-1--0--|--1------------------------|
------0---------------------------|--0------------------------|
----------------------------------|--2------------------------|
----------------------------------|--0------------------------|
----------------------------------|---------------------------|


                                        Em7
-------------------2--5--3--2r-0-----|--0------------------------|
-------------0--4-----------------4--|--3------------------------|
-------------------------------------|--0------------------------|
-------1--4--------------------------|--2------------------------|
----2--------------------------------|--2------------------------|
-------------------------------------|--0------------------------|


  E7                 A7sus2
--0---------------|--3--------|
--0---------------|--0--------|
--1---------------|--2--------|
--0---------------|--2--------|
--2---------------|--0--------|
--0---------------|-----------|
1. Il nostro amore   vola
2. Il nostro amore   vola



  D7sus2                G6
--0------------------|--3-------|
--1------------------|--5-------|
--2------------------|--4-------|
--0------------------|--5-------|
--0------------------|----------|
---------------------|----------|
1. sul mondo e le citta'
2. tra il fumo e i bigne'



  E7/F#                     Am7
--4----------------------|--0-------|
--3----------------------|--1-------|
--4----------------------|--0-------|
--2----------------------|--2-------|
--2----------------------|--0-------|
--2----------------------|----------|
1. per non lasciarti      sola
2. nei bar del centro e allora



  B7                          Em7
--0-----------------------|--0-------|
--3-----------------------|--3-------|
--0-----------------------|--0-------|
--2-----------------------|--2-------|
--2-----------------------|--2-------|
--0-----------------------|--0-------|
1. in mezzo alla vita a  penza'
2. io penso ancora a       te



  E7                   A7sus2
--0-----------------|--3--------------|
--0-----------------|--0--------------|
--1-----------------|--2--------------|
--0-----------------|--2--------------|
--2-----------------|--0--------------|
--0-----------------|-----------------|
1. Il nostro amore sona
2. Il nostro amore sona



  D7sus2                      G7M
--0---------------------|--2----------|
--1---------------------|--3----------|
--2---------------------|--4----------|
--0---------------------|--0----------|
--0---------------------|-------------|
------------------------|--3----------|
1. canzoni senza       eta'
2. forse un vecchio refrain



  G#dim                       Am7
--7------------------------|--0--------|
--6------------------------|--1--------|
--7------------------------|--0--------|
--6------------------------|--2--------|
---------------------------|--0--------|
---------------------------|-----------|
1. per cento   volte    ancora
2. che resta in testa e allora



  B7                   Em7
--2-----------------|--0----------------|
--0-----------------|--3----------------|
--2-----------------|--0----------------|
--1-----------------|--2----------------|
--2-----------------|--2----------------|
--------------------|--0----------------|
1. e mai si stanchera'
2. tu cantalo per me



  E7                   C7M
--0------------------|--0---------------|
--0------------------|--0---------------|
--1------------------|--0---------------|
--0------------------|--2---------------|
--2------------------|--3---------------|
--0------------------|------------------|
1. pecche' sta primmavera
2. questa       primavera



C#7sus4/E     F#7              Bm7
--7------------2------------|--2--------|
--5------------2------------|--3--------|
--4------------3------------|--2--------|
--5------------2------------|--4--------|
--4------------4------------|--2--------|
---------------2------------|-----------|
1.       a te me fa penza'
2.       a te me fa penza'



  E7                          Am7
--0------------------------|--0---------|
--0------------------------|--1---------|
--1------------------------|--0---------|
--0------------------------|--2---------|
--2------------------------|--0---------|
--0------------------------|------------|
1. e chissa' addo' staje stasera
2.   chissa' addo' staje stasera



  B7                          Em7
--2------------------------|--0----------|
--0------------------------|--0----------|
--2------------------------|--1----------|
--1------------------------|--0----------|
--2------------------------|--2----------|
---------------------------|--0----------|
1.    si m'aje scurdato gia'
2.    si m'aje scurdato gia'



  E7                   C7M
--0------------------|--0---------------|
--0------------------|--0---------------|
--1------------------|--0---------------|
--0------------------|--2---------------|
--2------------------|--3---------------|
--0------------------|------------------|
1. e in questa primevera
2.   in questa primavera



C#7sus4/E     F#7              Bm7
--7------------2------------|--2--------|
--5------------2------------|--3--------|
--4------------3------------|--2--------|
--5------------2------------|--4--------|
--4------------4------------|--2--------|
---------------2------------|-----------|
1. l'Europa cambiera'
2. l'Europa cambiera'



  E7                          Am7
--0------------------------|--0---------|
--0------------------------|--1---------|
--1------------------------|--0---------|
--0------------------------|--2---------|
--2------------------------|--0---------|
--0------------------------|------------|
1. la gente e' piu' sincera
2. la gente e' piu' sincera



  B7                          Em7
--2------------------------|--0----------|--||
--0------------------------|--0----------|--||
--2------------------------|--1----------|--||
--1------------------------|--0----------|--||
--2------------------------|--2----------|--||
---------------------------|--0----------|--||
1. la pace arrivera'
2. la pace arrivera'

[Ripetere intro]


Che ne pensate?

----------------------------------------------------------------------------
P-ChaM                         " WHY ME!?!?!?"
frazur@libero.it               "... why not?"
frazur@zoo.diaedu.unisa.it
ICQ 47256076







     
Добавлено: 24.07.2013
Другие материалы по этой песне:
  • Аккорды и текст

Страница создана 24.07.2013
http://primanota.ru/pino-daniele/questa-primavera-chords.htm
Привет, Гость.
Предлагаем пройти революционный курс по гитаре.
Подарок от PrimaNota.Ru, забирай!