PrimaNota.ru - самый крупный в мире бесплатный архив песенных текстов, аккордов, табулатур и нот


Pino Daniele - Stella Nera - таба, видео

Регистрация Запомнить меня
Войти через:  Facebook Google Twitter Vk Yandex Mail.ru

Pino Daniele - Stella Nera - таба, видео

Печатать
Просмотров: 88
		   ========
Da: "||Stef@no||"  sdello@tin.it>
Data: sabato, 21. aprile 2001 22:11
--------

Stella nera
(Pino Daniele)

  F add 9/A#                        Sib- add 9
||---5-8-5-------5--5-----------3-6-|--5-8-5-------5--5-----------3-6-|
||---6-----------6--6--------6--4---|--6-----------6--6--------6--4---|
||*--5-----------5--5------5----3---|--5-----------5--5------5----3---|
||*----------------------5----------|----------------------5----------|
||----------------------------------|---------------------------------|
||---6------6-6--------6--------4---|--6------6-6--------6--------4---|
1.                                                 Chella è na stella
2. sudano 'e mmane                                     Maronna comm'è
3.                                                     Nascette miezo

  F add 9/A#                       Sib- add 9
|----------------------------------|----------------------------------|
|----6-----6--6-----6-----------4--|-----6-----6--6-----6-----------4-|
|----5-----5--5-----5--------3-----|-----5-----5--5-----5--------3----|
|----5-----5--5-----5-----3--------|-----5-----5--5-----5-----3-------|
|----------------------------------|----------------------------------|
|-6-----6--------6-----4-----------|--6-----6--------6-----4----------|
1. nera             chella è na stella janca        gente ca nun se
2. futo            ca nun se vede 'o funno          me manca o sianto e
3. 'o mare         forze int'a n'atumunno           scugliera senza

    Sol-                             Sol-7+
|---------------3------------------|--------------3-------------------|
|-----------3-------3--------------|----------3-------3---------------|
|-------3---------------3-------3--|------3---------------3-------3---|
|---5-----------------------5------|--4-----------------------4-------|
|----------------------------------|----------------------------------|
|----------------------------------|----------------------------------|
1 tene                e sta senza penziere       pè mare 'o tiempo nun
2. scengo             e intanto tengo mente      'a muntagna è luntana
3. sole               scengo sempe sulo        e 'a muntagna è luntana

  Sol-6/E                          Re#7+
|--------------3------------------|-----------------3----------------||
|----------3-------3--------------|-------------3-------3------------||
|------3---------------3-------3--|---------3---------------3-------*||
|--2-----------------------2------|-----5----------------------5----*||
|---------------------------------|-6-----------------------------6--||
|---------------------------------|----------------------------------||
1. passa maje                      è positivo              e intanto
2. assaje                         'o mare si gruosso e arrassumiglia
3. assaje                          'o mare si gruosso e arrassumiglia

   F add 9/A#                     Sib- add 9
||-5-8-5-------5--5-----------3-6-|--5-8-5--------5--5-----------3-6-||
||-6-----------6--6--------6--4---|--6------------6--6--------6--4---||
||-5-----------5--5------5----3---|--5------------5--5------5----3---||
||---------------------5----------|-----------------------5----------||
||--------------------------------|----------------------------------||
||-6------6-6--------6--------4---|--6------6-6---------6--------4---||
'o cielo


   Bm add 9                          Em7
||-9-----------9-----------9-------|----------------------------------|
||-7---7-----------7-----------7---|---8-----------8-----------8------|
||-7-------7-----------7-----------|---7---7-----------7-----------7--|
||---------------------------------|---9-------9-----------9----------|
||---------------------------------|---7------------------------------|
||-7-------------------------------|----------------------------------|
     Se vede quacche luce                             e 'a finanza nun

  Re#7+                               Do#7+
|----------------------------------|----------------------------------|

|--3-----------3-----------3-------|---6-----------6-----------6------|
|--3---3-----------3-----------3---|---5---5-----------5-----------5--|
|--5-------5-----------5-----------|---6-------6-----------6----------|
|--6-------------------------------|---4------------------------------|
|----------------------------------|----------------------------------|
   se fa vedè                         gente 'o mare s'aiuta

   Cm add 9                           Sib- add 9
|--10-----------10-----------10------|--8-----------8-----------8-----|
|--8----8------------8------------8--|--6---6-----------6-----------6-|
|--8--------8------------8-----------|--6-------6-----------6---------|
|------------------------------------|--------------------------------|
|------------------------------------|--------------------------------|
|--8---------------------------------|--6-----------------------------|
                                        ma po' ognuno penza a se

   Cm add 9                           Sib- add 9
|--10-----------10-----------10------|--8-----------8-----------8-----|
|--8----8------------8------------8--|--6---6-----------6-----------6-|
|--8--------8------------8-----------|--6-------6-----------6---------|
|------------------------------------|--------------------------------|
|------------------------------------|--------------------------------|
|--8---------------------------------|--6-----------------------------|
                                         Penziere è chi nun

   Bm add 9                          Em7
|--9-----------9-----------9-------|----------------------------------|
|--7---7-----------7-----------7---|---8-----------8-----------8------|
|--7-------7-----------7-----------|---7---7-----------7-----------7--|
|----------------------------------|---9-------9-----------9----------|
|----------------------------------|---7------------------------------|
|--7-------------------------------|----------------------------------|
  torna                                             e l'acqua è caura

  Re#7+                                Do#7+
|----------------------------------|----------------------------------|
|--3-----------3-----------3-------|---6-----------6-----------6------|
|--3---3-----------3-----------3---|---5---5-----------5-----------5--|
|--5-------5-----------5-----------|---6-------6-----------6----------|
|--6-------------------------------|---4------------------------------|
|----------------------------------|----------------------------------|
    ma ched'è?                        Miette tutte e cose a buordo

  Cm add 9                           Sib- add 9
|--10-----------10-----------10------|--8-----------8----------8------|
|--8----8------------8------------8--|--6---6-----------6----------6--|
|--8--------8------------8-----------|--6-------6-----------6---------|
|------------------------------------|--------------------------------|
|------------------------------------|--------------------------------|
|--8---------------------------------|--6-----------------------------|
                                              fuje e nu penzà' a me

  Cm add 9                          Sib- add 9
|-10-----------10-----------10------|--8-----------8----------8------||
|-8----8------------8------------8--|--6---6-----------6----------6--||
|-8--------8------------8-----------|--6-------6-----------6---------||
|-----------------------------------|--------------------------------||
|-----------------------------------|--------------------------------||
|-8---------------------------------|--6-----------------------------||
                                               fuje e nu penzà' a me


Ritorna a capo fino alla fine

  F add 9/A#                      Sib- add 9
||-5-8-5-------5--5-----------3-6-|--5-8-5--------5--5-----------3-6-||
||-6-----------6--6--------6--4---|--6------------6--6--------6--4---||
||-5-----------5--5------5----3---|--5------------5--5------5----3---||
||---------------------5----------|-----------------------5----------||
||--------------------------------|----------------------------------||
||-6------6-6--------6--------4---|--6------6-6---------6--------4---||
(ad libitum)

Trascrizione ||Stef@no||

     
Добавлено: 18.11.2013
Другие материалы по этой песне:
  • Аккорды и текст

Страница создана 18.11.2013
http://primanota.ru/pino-daniele/stella-nera-chords.htm
Привет, Гость.
Предлагаем пройти революционный курс по гитаре.
Подарок от PrimaNota.Ru, забирай!