PrimaNota.ru - самый крупный в мире бесплатный архив песенных текстов, аккордов, табулатур и нот


Parkway Drive - Unrest - текст песни, таба, видео

Регистрация Запомнить меня
Войти через:  Facebook Google Twitter Vk Yandex Mail.ru

Parkway Drive - Unrest - текст песни, таба, видео

Печатать
Просмотров: 153
Уроки эстрадного вокала в Санкт-Петербурге
PARKWAY DRIVE-UNREST

TUNING- DROP A (A, E, A, D, F#, B)

NOTE: I HAVNT GOT GUITAR PRO AND SO DONT KNOW HOW SIMILAR THIS TAB IS TO OTHERS 
ALREADY ON THE SITE.

LEGEND:
       h= hammer on
       p= pull off
       /= slide from one fret to another
     x//= pickslide (duration can be worked out by listening to the song)
     PM.= palm mute
       ~= vibrato/note rings (required technique to be used can be worked
          out by listening to the song)

FUN SONG.

   INTRO-BOTH GUITARS
 B|---------------|----GUITAR-1-----------|--------GUITAR-2--------------|
F#|---------------|-----------------------|------------------------------|
 D|---------------|-----------------------|------------------------------|
 A|0~-------------|-----------------------|-(STILL-----------------------|
 E|0~-(LET-RING)--|-X////////////////////-|-RINGING)---------X//////////-|
 A|0~-------------|-X////////////////////-|------------------X//////////-| 
 
   GUITAR 1 ONLY---|    BOTH GUITARS
 B|---------------------|------------------------------------------------|
F#|---------------------|------------------------------------------------|
 D|---------------------|------------------------------------------------|
 A|---------------------|------------------------------------------------|
 E|8p5------------------|8p5-10p7-12p8-10p7-8p5-7p3----------------------|
 A|---0000--0000--0000-0|---0----0----0----0-----------------------------| 
PM    ....  ....  .... .    .    .    .    .
   MAIN RIFF (RIFF 1) BOTH GUITARS
 B|----------------------------------------------------------------------|
F#|----------------------------------------------------------------------|
 D|----------------------------------------------------------------------|
 A|----------------------------------------------------------------------|
 E|8p5----------------------8p5-8p5-8p5-8p5-7p3-7p3----------------------|
 A|---0000--0000--0000--000----0---0---0---0-----------------------------| 
PM    ....  ....  ....  ...    .   .   .   .
 B|----------------------------------------------------------------------|
F#|----------------------------------------------------------------------|
 D|----------------------------------------------------------------------|
 A|----------------------------------------------------------------------|
 E|8p5---------------------8p5-10p7-12p8-10p7-8p5-7p3--------------------|
 A|---0000--0000--0000--000---0----0----0----0---------------------------| 
PM    ....  ....  ....  ...   .    .    .    .
 B|----------------------------------------------------------------------|
F#|----------------------------------------------------------------------|
 D|----------------------------------------------------------------------|
 A|----------------------------------------------------------------------|
 E|5h8p5-----------------------------------------------------------------|
 A|-----0000--0000--0000--0000--0000--0000--0000--000--------------------| 
PM      ....  ....  ....  ....  ....  ....  ....  ...
 B|----------------------------------------------------------------------|
F#|----------------------------------------------------------------------|
 D|----------------------------------------------------------------------|
 A|----------------------------------------------------------------------|
 E|5h8p5---------------------10p7h10-12~--8p5h8-10~--7p3-7p3-------------|
 A|-----0000--0000--0000--000--------------------------------------------| 
PM      ....  ....  ....  ...
 B|----------------------------------------------------------------------|
F#|----------------------------------------------------------------------|
 D|----------------------------------------------------------------------|
 A|----------------------------------------------------------------------|
 E|5h8p5-----------------------------------------------------------------|
 A|-----00-00-00--00-00-00--00-00-00--00-00-00---------------------------| 
PM      .. .. ..  .. .. ..  .. .. ..  .. .. ..
 B|----------------------------------------------------------------------|
F#|----------------------------------------------------------------------|
 D|----------------------------------------------------------------------|
 A|----------------------------------------------------------------------|
 E|5h8p5---------------------8p5-10p7-12p8-10p7-8p5-7p3------------------|
 A|-----0000--0000--0000--000---0----0----0----0-------------------------| 
PM      ....  ....  ....  ...   .    .    .    .
 B|----------------------------------------------------------------------|
F#|----------------------------------------------------------------------|
 D|----------------------------------------------------------------------|
 A|----------------------------------------------------------------------|
 E|5h8p5-----------------------------------------------------------------|
 A|-----00-00-00--00-00-00--00-00-00--00-00-00---------------------------| 
PM      .. .. ..  .. .. ..  .. .. ..  .. .. ..
   INTERLUDE-GUITAR 1
 B|----------------------------------------------------------------------|
F#|----------------------------------------------------------------------|
 D|----------------------------------------------------------------------|
 A|--------------------------------------------5-------------------------|
 E|5h8p5h8p5h8p5h8p5h8p5h8-8~--3h7p3h7p3h7p3h7-5-------------------------|
 A|------------------------8~------------------5-------------------------| 

 B|----------------------------------------------------------------------|
F#|----------------------------------------------------------------------|
 D|----------------------------------------------------------------------|
 A|8-----------------------8---7---------------5-------------------------|
 E|8-----------------------8---7---------------5-------------------------|
 A|8-----------------------8---7---------------5-------------------------| 
  
   BOTH GUITARS
 B|----------------------------------------------------------------------|
F#|----------------------------------------------------------------------|
 D|----------------------------------------------------------------------|
 A|----------------------------------------------------------------------|
 E|----------------------------------------------------------------------|
 A|000-00--000-00-00-000-00--000-00-000----------------------------------| 
PM ... ..  ... .. .. ... ..  ... .. ...
   2ND PART OF INTERLUDE-GUITAR 1
 B|----------------------------------------------------------------------|
F#|----------------------------------------------------------------------|
 D|----------------------------------------------------------------------|
 A|----------------------------------------------------------------------|
 E|5h8p5h8p5h8p5h8p5h8p5h8-8~--3h7p3h7p3h7p3h7p3h7p3h7-5~----------------|
 A|------------------------8~--------------------------5~----------------| 
   
 B|----------------------------------------------------------------------|
F#|----------------------------------------------------------------------|
 D|----------------------------------------------------------------------|
 A|----------------------------------------------------------------------|
 E|----------------------------------------------------------------------|
 A|7/5-0--0---5/7/5-0--0---5---------------------------------------------| 

   2ND PART OF INTERLUDE-GUITAR 2
 B|----------------------------------------------------------------------|
F#|----------------------------------------------------------------------|
 D|----------------------------------------------------------------------|
 A|----------------------------------------------------------------------|
 E|8h12p8h12p8h12p8h12p8h12p8h12-8~--7h10p7h10p7h10p7h10p7h10p7h10-5~----|
 A|------------------------------8~--------------------------------5~----| 

 B|----------------------------------------------------------------------|
F#|----------------------------------------------------------------------|
 D|----------------------------------------------------------------------|
 A|----------------------------------------------------------------------|
 E|----------------------------------------------------------------------|
 A|12/10-0--0---10/12/10-0--0---10---------------------------------------| 

   GUITAR 1
 B|----------------------------------------------------------------------|
F#|----------------------------------------------------------------------|
 D|----------------------------------------------------------------------|
 A|----------------------------------------------------------------------|
 E|5h8p5h8p5h8p5h8p5h8p5h8-8~--3h7p3h7p3h7p3h7p3h7p3h7-5~----------------|
 A|------------------------8~--------------------------5~----------------| 
   GUITAR 2
 B|----------------------------------------------------------------------|
F#|----------------------------------------------------------------------|
 D|----------------------------------------------------------------------|
 A|----------------------------------------------------------------------|
 E|8h12p8h12p8h12p8h12p8h12p8h12-8~--7h10p7h10p7h10p7h10p7h10p7h10-5~----|
 A|------------------------------8~--------------------------------5~----| 
   BOTH GUITARS
 B|----------------------------------------------------------------------|
F#|----------------------------------------------------------------------|
 D|----------------------------------------------------------------------|
 A|----------------------------------------------------------------------|
 E|----------------------------------------------------------------------|
 A|000-00--000-00-00-000-00--000-00-000----------------------------------| 
PM ... ..  ... .. .. ... ..  ... .. ...
  GUITAR 1
 B|----------------------------------------------------------------------|
F#|----------------------------------------------------------------------|
 D|----------------------------------------------------------------------|
 A|----------------------------------------------------------------------|
 E|5h8p5h8p5h8p5h8p5h8p5h8-8~--3h7p3h7p3h7p3h7p3h7p3h7-5~----------------|
 A|------------------------8~--------------------------5~----------------| 
   GUITAR 2
 B|----------------------------------------------------------------------|
F#|----------------------------------------------------------------------|
 D|----------------------------------------------------------------------|
 A|----------------------------------------------------------------------|
 E|8h12p8h12p8h12p8h12p8h12p8h12-8~--7h10p7h10p7h10p7h10p7h10p7h10-5~----|
 A|------------------------------8~--------------------------------5~----| 
   GUITAR 1
 B|----------------------------------------------------------------------|
F#|----------------------------------------------------------------------|
 D|----------------------------------------------------------------------|
 A|----------------------------------------------------------------------|
 E|---------------------------------------------3-3-3--------------------|
 A|7/5-0--0---5/7/5-0--0---5/7/5-0--0---5/7/5-0--------------------------| 
 
 B|----------------------------------------------------------------------|
F#|----------------------------------------------------------------------|
 D|----------------------------------------------------------------------|
 A|----------------------------------------------------------------------|
 E|---------------------------------------------3-3~---------------------|
 A|7/5-0--0---5/7/5-0--0---5/7/5-0--0---5/7/5-0--------------------------| 
   GUITAR 2
 B|----------------------------------------------------------------------|
F#|----------------------------------------------------------------------|
 D|----------------------------------------------------------------------|
 A|----------------------------------------------------------------------|
 E|--------------------------------------------------------7-7-7---------|
 A|12/10-0--0---10/12/10-0--0---10/12/10-0--0---10/12/10-0---------------| 
   
 B|----------------------------------------------------------------------|
F#|----------------------------------------------------------------------|
 D|----------------------------------------------------------------------|
 A|----------------------------------------------------------------------|
 E|--------------------------------------------------------7-7~----------|
 A|12/10-0--0---10/12/10-0--0---10/12/10-0--0---10/12/10-0---------------| 
   
   BOTH GUITARS
 B|----------------------------------------------------------------------|
F#|---BOTH LET RING FULLY------------------------------------------------|
 D|----------------------------------------------------------------------|
 A|0~--------------------------~~--~~------------------------------------|
 E|0~--------------------------~~--~~----x//////////---------------------|
 A|0~--------------------------~~--~~----x//////////---------------------| 

 B|----------------------------------------------------------------------|
F#|----------------------------------------------------------------------|
 D|----------------------------------------------------------------------|
 A|----------------------------------------------------------------------|
 E|8p5------------------8p5-10p7-12p8-10p7-8p5-7p3-----------------------|
 A|---0000-0000-0000-000---0----0----0----0------------------------------| 
PM    .... .... .... ...   .    .    .    .
 B|----------------------------------------------------------------------|
F#|----------------------------------------------------------------------|
 D|----------------------------------------------------------------------|
 A|----------------------------------------------------------------------|
 E|8p5-------------------------------------------------------------------|
 A|---00-00-00--00-00-00--00-00-00--00-00-00-----------------------------| 
PM    .. .. ..  .. .. ..  .. .. ..  .. .. ..
 B|----------------------------------------------------------------------|
F#|----------------------------------------------------------------------|
 D|----------------------------------------------------------------------|
 A|----------------------------------------------------------------------|
 E|8p5------------------10p7h10-12~--8p5h8-10~--7p3-7p3------------------|
 A|---0000-0000-0000-000-------------------------------------------------| 
PM    .... .... .... ...
 B|----------------------------------------------------------------------|
F#|----------------------------------------------------------------------|
 D|----------------------------------------------------------------------|
 A|----------------------------------------------------------------------|
 E|5h8p5-----------------------------------------------------------------|
 A|-----00-00-00--00-00-00--00-00-00--00-00-00---------------------------| 
PM      .. .. ..  .. .. ..  .. .. ..  .. .. ..
 B|----------------------------------------------------------------------|
F#|----------------------------------------------------------------------|
 D|----------------------------------------------------------------------|
 A|0~------------------------------0~------------------------------------|
 E|0~------------------------------0~----------------0-------------------|
 A|0~------------------------------0~----------------0-------------------| 
PM                                                   .
   BREAKDOWN
 B|----------------------------------------------------------------------|
F#|----------------------------------------------------------------------|
 D|----------------------------------------------------------------------|
 A|-------------------------------------------2~-------------------------|x3
 E|0-0-0~~0~~0~--0~--0~~0-0-0~~0~~0~~--5~---3----------------------------|
 A|0-0-0~~0~~0~--0~--0~~0-0-0~~0~~0~~7-----------------------------------| 
PM . . .  .  .   .   .  . . .  .  .
   OUTRO
 B|-----------------------------|
F#|-----------------------------|
 D|-----------------------------|
 A|-----------------------------|
 E|0-0-0~~0---------------------|
 A|0-0-0~~0---------------------|  
PM . . .  .
Добавлено: 19.03.2012
Другие материалы по этой песне:

Страница создана 23.02.2012
http://primanota.ru/parkway-drive/unrest-chords.htm
Привет, Гость.
Предлагаем пройти революционный курс по гитаре.
Подарок от PrimaNota.Ru, забирай!