PrimaNota.ru - самый крупный в мире бесплатный архив песенных текстов, аккордов, табулатур и нот


Parkway Drive - Wreckage - текст песни, таба, видео

Регистрация Запомнить меня
Войти через:  Facebook Google Twitter Vk Yandex Mail.ru

Parkway Drive - Wreckage - текст песни, таба, видео

Печатать
Просмотров: 320
-----------------------------------------------------
              Wreckage - Parkway Drive
-----------------------------------------------------
Tabbed by: Kristyn Lee 
Email: spot_the_village_loony_836@hotmail.com

Tuning: B F# B E G# C#

Intro
right guitar
C#|---------------------------|
G#|---------------------------|
E |---------------------------|x4
B |-----7h8p7-----------------|
F#|------------8/10-----------|
B |---0--------8/10-----------|
left guitar
C#|---------------------------|
G#|---------------------------|
E |-----9h10p9----------------|x4
B |---------------------------|
F#|------------8/10-----------|
B |---0--------8/10-----------|
right guitar
C#|---------------------------------|
G#|---------------------------------|
E |---------------------------------|x4
B |-------7h8p7-----7h8p7-----8p7---|
F#|-------------8~--------10--------|
B |---0---------8~--------10--------|
left guitar
C#|---------------------------------|
G#|---------------------------------|
E |------9h10p9----9h10p9----10p9---|x4
B |---------------------------------|
F#|-------------8~--------10--------|
B |---0---------8~--------10--------|

0:28  both guitars
C#|----------------------------|
G#|----------------------------|
E |----------------------------|x4
B |-----2h3p2---2h3p2---3p2----|
F#|---0-------3-------5--------|
B |---0-------3-------5--------|
0:41 - 1:07   both parts x 2
C#|-----------------------------------------------|
G#|-----------------------------------------------|
E |-----------------------------------------------|
B |-----------------5-7---------------------7-5---|
F#|--0h7h8p7-7p0000-3-5-000-------------000-5-3---|
B |--0h7h8p7-7p0000-----000-0h5h8p7-7p0-000-------|
               ....     ...             ...
C#|---------------------------------------------------|
G#|---------------------------------------------------|
E |---------------------------------------------------|
B |-----------------5-7---------------------7-5-5/9---|
F#|--0h7h8p7-7p0000-3-5-000-------------000-5-3-3/7---|
B |--0h7h8p7-7p0000-----000-0h5h8p7-7p0-000-----------|
               ....     ...             ...  
1:08
C#|----------------------------|
G#|----------------------------|
E |----------------------------|x4
B |-----2h3p2---2h3p2---3p2----|
F#|---0-------3-------5--------|
B |---0-------3-------5--------|
1:22
C#|-----------------------------------|
G#|-----------------------------------|
E |-----------------------------------|x4
B |-------7h8p7-----------------------|
F#|---000-------8~--000-10~-----------|
B |---000-------8~--000-10~-----------|
      ...           ...
1:35
C#|----------------------------------------------------------------------|
G#|----------------------------------------------------------------------|
E |----------------------------------------------------------------------|
B |----------------------------------------------------------------------|
F#|-----------------------------------33333333333333335555555555555555---|
B |---22222222222222222222222222222222-----------------------------------|

C#|------------------------------------------------------------------|
G#|------------------------------------------------------------------|
E |------------------------------------------------------------------|
B |------------------------------------------------------------------|
F#|-----------------------------------3333333333333333555-5555-5\\---|
B |---22222222222222222222222222222222-------------------------------|
                                                      ... .... 
No solo, i'm not that good at tabs, lol
But here's the other guitar parts over the solo
1:52
C#|--------------------------------------|
G#|--------------------------------------|
E |--------------------------------------|
B |--------------------------------------|
F#|---10101010101010~-12121212121212~----|
B |---10101010101010~-12121212121212~----|
1:56
C#|----------------------------------------------------|
G#|----------------------------------------------------|
E |----------------------------------------------------|
B |----------------------------------------------------|
F#|---2222-2222-2222-2222--101010101010-121212121212---|
B |---2222-2222-2222-2222--101010101010-121212121212---|
      .... .... .... ....  . . . . . .  . . . . . .
2:02
C#|--------------------------------------------------------------------|
G#|--------------------------------------------------------------------|
E |--------------------------------------------------------------------|
B |--------------------------------------------------------------------|
F#|---2222-2222-22222222-2222-2222--333333333333333-5555555555555555---|
B |---2222-2222-22222222-2222-2222-------------------------------------|
      .... .... ........ .... ....  ............... ................
2:09
C#|-----------------------------------------------------------------|
G#|-----------------------------------------------------------------|
E |-----------------------------------------------------------------|
B |-----------------------------------------------------------------|
F#|---2222-2222-22222222-2222-2222--333333333333333-5555-5555-5\\---|
B |---2222-2222-22222222-2222-2222----------------------------------|
      .... .... ........ .... ....  ............... .... ....
2:16
C#|----------------------------|
G#|----------------------------|
E |----------------------------|
B |-----2h3p2---2h3p2---3p2----|
F#|---0-------3-------5--------|
B |---0-------3-------5--------|

2:29   "i have the blackest soul..."
C#|--------------------------|
G#|--------------------------|
E |--------------------------|
B |--------------------------|
F#|---0~----0~---000-00------|
B |---0~----0~---000-00------|
     
2:42  i can't figure out the other riff that goes here
C#|----------------------------|
G#|----------------------------|
E |----------------------------|
B |-----2h3p2---2h3p2---3p2----|
F#|---0-------3-------5--------|
B |---0-------3-------5--------|
2:55
C#|---------------|
G#|---------------|
E |---------------|
B |---0~----------|
F#|---0~----------|
B |---0~----------|



************************************

| .   palm mute
| /   slide up
| \   slide down
| h   hammer-on
| p   pull-off
| ~   vibrato
| +   harmonic
| x   Mute note
| b   Bend
| pb  Pre-bend
| br  Bend release
| pbr Pre-bend release
| brb Bend release bend

************************************
Добавлено: 15.07.2012
Другие материалы по этой песне:

Страница создана 23.02.2012
http://primanota.ru/parkway-drive/wreckage-chords.htm
Привет, Гость.
Предлагаем пройти революционный курс по гитаре.
Подарок от PrimaNota.Ru, забирай!