PrimaNota.ru - самый крупный в мире бесплатный архив песенных текстов, аккордов, табулатур и нот


Parkway Drive - Sleepwalker - текст песни, таба, видео

Регистрация Запомнить меня
Войти через:  Facebook Google Twitter Vk Yandex Mail.ru

Parkway Drive - Sleepwalker - текст песни, таба, видео

Печатать
Просмотров: 537
-------------------------------------------------------------------------------
                             Sleepwalker Solo - Parkway Drive
-------------------------------------------------------------------------------
   Tabbed by:Sim_dog4.0
   Tuning:Drop A# (A# F A# D# G C)

   (3:04)
C |----17----15----15-18----17------15-h17-p15~---------------------------|
G |-15----15----15-------15----15-15--------------------------------------|
D#|-----------------------------------------------------------------------|
A#|-----------------------------------------------------------------------|
F |-----------------------------------------------------------------------|
A#|-----------------------------------------------------------------------|
   (3:08)
  |-----------------------------------------------------------------------|
  |-18-17-18-17-15--18-17-18-17-------------------------------------------|
  |-----------------------------14----------------------------------------|
  |---------------------------------14-12-14-12-9-10-9-10-----------------|
  |-------------------------------------------------------12--------------|
  |-----------------------------------------------------------------------|
   (3:14)
  |---------------------------|
  |---------------------------|
  |-------------10-12^14------|
  |-12-10-12-10---------------|
  |---------------------------|
  |---------------------------|

  (This is the semi fast bit of the solo.)
   (3:18)
  |-------------------------------------13-h15-/17-15-\13-h15-------------|
  |------------------------------13-h15-----------------------------------|
  |-------10-h12-/14--12-h14-h15------------------------------------------|
  |-10-h12----------------------------------------------------------------|
  |-----------------------------------------------------------------------|
  |-----------------------------------------------------------------------|

Finger tapping. Only on the 13th, 17th and 18th frets, index finger stays on 10th fret 
all times.

   (3:21)
  |-17p10-13p10--18p10-13p10----| x 3       |-17p10-13p10--17p13----------|
  |-----------------------------|           |-----------------------------|
  |-----------------------------|           |-----------------------------|
  |-----------------------------| 4th time  |-----------------------------|
  |-----------------------------|   play    |-----------------------------|
  |-----------------------------|           |-----------------------------|

   (3:25)
  |-17----17------------|
  |----15----15---------|
  |-------------14------| x 2
  |---------------------|
  |---------------------|
  |---------------------|

  (3:28)
  |-15h17p15-13h15p13-12h13p12-10h12p10-5-------------------------------|
  |---------------------------------------------------------------------|
  |---------------------------------------------------------------------|
  |---------------------------------------------------------------------|
  |---------------------------------------------------------------------|
  |---------------------------------------------------------------------|

This is my first tab on so may not make sence to everyone, but it makes sence to me so 
any questions or sugestions to edit it.


************************************

| /   slide up
| \   slide down
| h   hammer-on
| p   pull-off
| ~   vibrato
| +   harmonic
| x   Mute note
| b   Bend
| pb  Pre-bend
| br  Bend release
| pbr Pre-bend release
| brb Bend release bend

************************************
Добавлено: 14.07.2012
Другие материалы по этой песне:

Страница создана 24.02.2012
http://primanota.ru/parkway-drive/sleepwalker-chords.htm
Привет, Гость.
Предлагаем пройти революционный курс по гитаре.
Подарок от PrimaNota.Ru, забирай!