PrimaNota.ru - самый крупный в мире бесплатный архив песенных текстов, аккордов, табулатур и нот


Parkway Drive - Vice Grip - таба, видео

Регистрация Запомнить меня
Войти через:  Facebook Google Twitter Vk Yandex Mail.ru

Parkway Drive - Vice Grip - таба, видео

Печатать
Просмотров: 244
-------------------------------------------------------------------------------
                             Vice Grip - Parkway Drive
-------------------------------------------------------------------------------
Tabbed by:HTTK2013
E-mail:
Okay so this is my tab of Parkway Drives new song 'Vice Grip'.
**THIS IS ONLY THE LEAD GUITAR**
**RHYTHM IS ON ITS WAY!**
Rate and comment if you could! :)
Tuning:B F# B E G# C

e|---------------------------------------------------------------------------|
B|-----------------10-8------------------------------------------------------|
G|-10----9----7------------10----9------9-10-9-7--10----9----7----9----------|
D|----00---00---00------00----00---0000--------------00---00---00------------|
A|---------------------------------------------------------------------------|
E|---------------------------------------------------------------------------|
PM    ..   ..   ..      ..    ..   ....              ..   ..   ..
e|---------------------------------------------------------------------------|
B|------------------------------10-8-----------------------------------------|
G|-10~~~-9-7--9-10----9----7------------10----9------9-10-9-7----------------|
D|-----------------00---00---00------00----00---0000-------------------------|
A|---------------------------------------------------------------------------|
E|---------------------------------------------------------------------------|
PM                 ..   ..   ..      ..    ..   ....
e|---------------------------------------------------------------------------|
B|---------------------------------------------------------------------------|
G|-10----9----7----9--10~~9-7-5--9-7-----------------------------------------|
D|----00---00---00-----------------------------------------------------------|
A|---------------------------------------------------------------------------|
E|---------------------------------------------------------------------------|
PM    ..   ..   ..
e|-------------------------------8-------------------------------------------|
B|-----------------10-8------------------------------------------------------|
G|-10----9----7------------10----------9-9-9-10-9-7--------------------------|
D|----00---00---00------00----00----00---------------------------------------|
A|---------------------------------------------------------------------------|
E|---------------------------------------------------------------------------|
PM    ..   ..   ..      ..    ..    ..
e|---------------------------------------------------------------------------|
B|---------------------------------------------------------------------------|
G|-10----9----7----9--10~~-9-7-----------------------------------------------|
D|----00---00---00-----------------------------------------------------------|
A|---------------------------------------------------------------------------|
E|---------------------------------------------------------------------------|
PM    ..   ..   ..
e|-----------8----------------------8-------------------------8--------------|
B|------8------8---------------8------8-----------------8*------8------------|
G|-7~~~---10------10-9-7--7~~~---10------10-7-----7~~~-----10-----10-7-7-----|
D|--------------------------------------------10-----------------------------|
A|---------------------------------------------------------------------------|
E|---------------------------------------------------------------------------|

e|---------------------------------------------------------------------------|
B|------------------8----8-10------------------------------------------------|
G|-7~~--7-9-10-9-10---10------7----------------------------------------------|(FAST-ISH)
D|---------------------------------------------------------------------------|
A|---------------------------------------------------------------------------|
E|---------------------------------------------------------------------------|

e|---------------------------------------------------------------------------|
B|---------------------------------------------------------------------------|
G|---------------------------------------------------------------------------|
D|-12~~--8~~--10~~-----12~~--8~~--3~~--------------------12~~--8~~--10~~-----|
A|-12~~--8~~--10~~-----12~~--8~~--3~~-------3-3-3-3-3-3--12~~--8~~--10~~-----|
E|-12~~--8~~--10~~-----12~~--8~~--3~~-------3-3-3-3-3-3--12~~--8~~--10~~-----|
PM                                          . . . . . .
e|---------------------------------------------------------------------------|
B|---------------------------------------------------------------------------|
G|-7--7-7-7-7--3--5--3--2----------------------------------------------------|
D|-------------------------3-------------------------------------------------|
A|---------------------------------------------------------------------------|
E|---------------------------------------------------------------------------|

e|-----------------------------------------13-13-----------------------------|
B|-----------10---------7-9-10-9----10~~-------------------------------------|
G|-7-10---10----5----10----------10--------------12--9-10-9-7-5--------------|
D|---------------------------------------------------------------------------|
A|---------------------------------------------------------------------------|
E|---------------------------------------------------------------------------|

e|-------------------13-12---------------------------------------------------|
B|----7-9--10-9------------13------------------------------------------------|
G|-10-----------10------------12~~~~~~-9-------------------------------------|(THIS STARTS AFTER BRIEF 
D|---------------------------------------------------------------------------|LEAD GUITAR PAUSE)
A|---------------------------------------------------------------------------|
E|---------------------------------------------------------------------------|

e|---------------------------------------------------------------------------|
B|--------------10-8---------------------------------------------------------|
G|-10----9----7---------10----9------9-10-9-7--------------------------------|
D|----00---00--------00----00---0000-----------------------------------------|
A|---------------------------------------------------------------------------|
E|---------------------------------------------------------------------------|
PM    ..   ..        ..    ..   ....
e|---------------------------------------------------------------------------|
B|---------------------------------------------------------------------------|
G|-10----9----7----9--10~~--9-7-5~~-9-7--------------------------------------|
D|----00---00---00-----------------------------------------------------------|
A|---------------------------------------------------------------------------|
E|---------------------------------------------------------------------------|
      ..   ..   ..
e|-------------------------------8-------------------------------------------|
B|-----------------10-8------------------------------------------------------|
G|-10----9----7------------10----------9-9-9-10-9-7--------------------------|
D|----00---00---00------00----00---00----------------------------------------|
A|---------------------------------------------------------------------------|
E|---------------------------------------------------------------------------|
PM    ..   ..   ..      ..    ..   ..
e|-----------------------------------------8---------------------------------|
B|------------------------------------8------8-------------------------------|
G|-10----9----7----9--10~~-9-7~~--7~~---10------10-9-7----7~~~---------------|
D|----00---00---00-----------------------------------------------------------|
A|---------------------------------------------------------------------------|
E|---------------------------------------------------------------------------|
PM    ..   ..   ..
e|------8-----------------------8--------------12hbr-10----------------------|
B|-8------8---------------8*------8------------------------------------------|
G|---10------10-7----7~~-----10-------10-7-----------------------------------|
D|----------------7------------------------10--------------------------------|
A|---------------------------------------------------------------------------|
E|---------------------------------------------------------------------------|

e|---------------------------------------------------------------------------|
B|-------------8----8-10-----------------------------------------------------|
G|-7-9-10-9-10---10------7---------------------------------------------------|(FAST-ISH)
D|---------------------------------------------------------------------------|
A|---------------------------------------------------------------------------|
E|---------------------------------------------------------------------------|

e|---------------------------------------------------------------------------|
B|---------------------------------------------------------------------------|
G|---------------------------------------------------------------------------|
D|-12~~--8~~--10~~-----12~~--8~~--3~~--------------------12~~--8~~--10~~-----|
A|-12~~--8~~--10~~-----12~~--8~~--3~~-------3-3-3-3-3-3--12~~--8~~--10~~-----|
E|-12~~--8~~--10~~-----12~~--8~~--3~~-------3-3-3-3-3-3--12~~--8~~--10~~-----|
PM                                          . . . . . .
e|---------------------------------------------------------------------------|
B|---------------------------------------------------------------------------|
G|-7--7-7-7-7--3--5--3--2----------------------------------------------------|
D|-------------------------3-------------------------------------------------|
A|---------------------------------------------------------------------------|
E|---------------------------------------------------------------------------|

e|-----------------------------------------13-13-----------------------------|
B|-----------10---------7-9-10-9----10~~-------------------------------------|
G|-7-10---10----5----10----------10--------------12--9-10-9-7-5--------------|
D|---------------------------------------------------------------------------|
A|---------------------------------------------------------------------------|
E|---------------------------------------------------------------------------|

e|---------------------------------------------------------------------------|
B|----7-9--10-9--------------------------------------------------------------|
G|-10-----------10-----------------------------------------------------------|(THIS STARTS AFTER BRIEF 
D|---------------------------------------------------------------------------|LEAD GUITAR PAUSE)
A|---------------------------------------------------------------------------|
E|---------------------------------------------------------------------------|

e|---------------------------------------------------------------------------|
B|---------------------------------------------------------------------------|
G|---------------------------------------------------------------------------|
D|---------------------------------------------------------------------------|
A|-00-0000-0000--------------------------------------------------------------|
E|-00-0000-0000--------------------------------------------------------------|
PM .. .... ....
e|---------------------------------------------------------------------------|
B|---------------------------------------------------------------------------|
G|---------------------------------------------------------------------------|
D|---------------------7-----------------------------------------------------|
A|-5-----3-5-6-5~~-3-5---5--3-5-11113311-------------------------------------|
E|---0~~---------------------------------------------------------------------|
PM   .
e|-8fb-8fb-8fb-8fb----------15-------13--------------------------------------|
B|-----------------15-13-------15-13----15-----------------------------------|
G|-----------------------14----------------12----------------12-14-----------|    (SOLO!!!!)
D|--------------------------------------------15-12----12-15-----------------|(Spread out, but play
A|--------------------------------------------------15-----------------------|fast!)
E|---------------------------------------------------------------------------|

e|---------------------------------------------------------------------------|
B|---------------------------------------------------------------------------|
G|---------------------------------------------------------------------------|
D|---------------------------------------------------------------------------|
A|-00-0000-0000--------------------------------------------------------------|
E|-00-0000-0000--------------------------------------------------------------|
PM .. .... ....
e|---------------------------------------------------------------------------|
B|---------------------------------------------------------------------------|
G|-9-10------10------10----10------10------10--------------------------------|
D|------0000----0000----00----0000----0000-----------------------------------|
A|---------------------------------------------------------------------------|
E|---------------------------------------------------------------------------|\
PM      ....    ....    ..    ....    ....                                     x2
e|---------------------------------------------------------------------------|/
B|---------------------------------------------------------------------------|
G|----9------9------9----7------7---7--77------------------------------------|
D|-00---0000---0000---00---0000---0------------------------------------------|
A|---------------------------------------------------------------------------|
E|---------------------------------------------------------------------------|
   ..   ....   ....   ..   ....   .
e|---------------------------------------------------------------------------|
B|-----------------10-8------------------------------------------------------|
G|-10----9----7------------10----9------9-10-9-7-----------------------------|
D|----00---00---00------00----00---0000--------------------------------------| x3
A|---------------------------------------------------------------------------|
E|---------------------------------------------------------------------------|
PM    ..   ..   ..      ..    ..   ....
e|------10-12-13-12-13-15-13-15-17-10----------------------------------------|
B|---------------------------------------------------------------------------|
G|-10~~----------------------------------------------------------------------|
D|---------------------------------------------------------------------------|
A|---------------------------------------------------------------------------|
E|---------------------------------------------------------------------------|

e|---------------------------------------------------------------------------|
B|---------------------------------------------------------------------------|
G|---------------------------------------------------------------------------|
D|-12~~--8~~--10~~-----12~~--8~~--3~~--------------------12~~--8~~--10~~-----|
A|-12~~--8~~--10~~-----12~~--8~~--3~~-------3-3-3-3-3-3--12~~--8~~--10~~-----|
E|-12~~--8~~--10~~-----12~~--8~~--3~~-------3-3-3-3-3-3--12~~--8~~--10~~-----|
PM                                          . . . . . .
e|---------------------------------------------------------------------------|
B|---------------------------------------------------------------------------|
G|-7--7-7-7-7--3--5--3--2----------------------------------------------------|
D|-------------------------3-------------------------------------------------|
A|---------------------------------------------------------------------------|
E|---------------------------------------------------------------------------|

e|-----------------------------------------13-13-----------------------------|
B|-----------10---------7-9-10-9----10~~-------------------------------------|
G|-7-10---10----5----10----------10--------------12--9-10-9-7-5--------------|
D|---------------------------------------------------------------------------|
A|---------------------------------------------------------------------------|
E|---------------------------------------------------------------------------|

e|-------------------13-12---------------------------------------------------|
B|----7-9--10-9------------13------------------------------------------------|
G|-10-----------10------------12~~~~~~---------------------------------------|(THIS STARTS AFTER BRIEF 
D|---------------------------------------------------------------------------|LEAD GUITAR PAUSE)
A|---------------------------------------------------------------------------|
E|---------------------------------------------------------------------------|

e|----------------------------------------------13-13------------------------|
B|------------------10----------------8h10p8---------------------------------|
G|-12~~~---7-10--10----5~~-----7-9-10--------10-------12~~-9-10-9-7-5--------|
D|--------------------------10-----------------------------------------------|
A|---------------------------------------------------------------------------|
E|---------------------------------------------------------------------------|

e|------13-12----------------------------------------------------------------|
B|------------13------------------10--11-8--10-6-8-8------------6---5h6------|
G|-10~~----------12~~-7p5-7--7h10--------------------10p9p7--5h7--7-----5----|
D|---------------------------------------------------------------------------|
A|---------------------------------------------------------------------------|
E|---------------------------------------------------------------------------|

e|-9hb~~--8--------------------9hb~~-15~~-15p13h15---------------------------|
B|----------10-8-------------------------------------------------------------|
G|---------------10-7----7-10------------------------------------------------|Once again, spread apart,
D|--------------------10-----------------------------------------------------|but fast
A|---------------------------------------------------------------------------|
E|---------------------------------------------------------------------------|

e|---------------------------------------------------------------------------|
B|---------------------------------------------------------------------------|
G|---------------------------------------------------------------------------|Start slowing down tempo
D|---------------------------------------------------------------------------|when you get to this part!
A|---------------------------------------------------------------------------|
E|---------------------------------------------------------------------------|

e|-17\13--15\12--13\10--12\8~~~~~~--8/10~~~~~~~~-----------------------------|
B|---------------------------------------------------------------------------|
G|---------------------------------------------------------------------------|
D|---------------------------------------------------------------------------|
A|---------------------------------------------------------------------------|
E|---------------------------------------------------------------------------|

************************************

| /   slide up
| \   slide down
| h   hammer-on
| p   pull-off
| ~   vibrato
| +   harmonic
| x   Mute note
| b   Bend
| pb  Pre-bend
| br  Bend release
| pbr Pre-bend release
| brb Bend release bend

************************************
Добавлено: 20.11.2015
Другие материалы по этой песне:

Страница создана 20.11.2015
http://primanota.ru/parkway-drive/vice-grip-chords.htm
Привет, Гость.
Предлагаем пройти революционный курс по гитаре.
Подарок от PrimaNota.Ru, забирай!