PrimaNota.ru - самый крупный в мире бесплатный архив песенных текстов, аккордов, табулатур и нот


Parkway Drive - Idols And Anchors - текст песни, таба, бас-таба, видео

Регистрация Запомнить меня
Войти через:  Facebook Google Twitter Vk Yandex Mail.ru

Parkway Drive - Idols And Anchors - текст песни, таба, бас-таба, видео

Печатать
Просмотров: 635
yer this is idols and anhors solo an its 100% correct woooo i fixed it up from my last submission


drop b

-----------------------------------------------|
-----------------------------------------------|
--17------15------14------15-14h15p14----------|
-----1515----1515----1515-------------15/17-17-|
-----------------------------------------------|
-----------------------------------------------|
              keep doing hammer ons and pull offs
--------------20p17h20p17--18p15h18p15--15p12h15p12--|
-15h17--17br-----------------------------------------|
-----------------------------------------------------|
-----------------------------------------------------|
-----------------------------------------------------|
-----------------------------------------------------|

--------12-----------------------------------------------------|
--12h13----13-12h13p12-----------------------------------------|
-----------------------14--(T17p14-x8)-(T15p12-x4)-(T13p10-x4)-|
---------------------------------------------------------------|
---------------------------------------------------------------|
---------------------------------------------------------------|


slow sweeping

----------10h12p10----------------10h12p10----------|
-------13----------13----------13----------13-------|
----12----------------12----12----------------12----|
-10----------------------10-------------------------|
----------------------------------------------------|
----------------------------------------------------|


--17p15-------17p15-------15p13-------15b-13h15-13br-|
--------17p15-------17p15-------15p13----------------|
-----------------------------------------------------|
-----------------------------------------------------|
-----------------------------------------------------|
-----------------------------------------------------|

---19p17-------19p17--------17p15-------15h17p15-------------------|
---------19p17-------19p17--------17p15-----------17-15-15-13-12br-|
-------------------------------------------------------------------|
-------------------------------------------------------------------|
-------------------------------------------------------------------|
-------------------------------------------------------------------|

yer thats it 100% correct and i noe it because it merges perfectly with th song
Добавлено: 19.03.2012
Другие материалы по этой песне:

Страница создана 10.03.2012
http://primanota.ru/parkway-drive/idols-and-anchors-chords.htm
Привет, Гость.
Предлагаем пройти революционный курс по гитаре.
Подарок от PrimaNota.Ru, забирай!