PrimaNota.ru - самый крупный в мире бесплатный архив песенных текстов, аккордов, табулатур и нот


Parkway Drive - Wild Eyes - таба, бас-таба, видео

Регистрация Запомнить меня
Войти через:  Facebook Google Twitter Vk Yandex Mail.ru

Parkway Drive - Wild Eyes - таба, бас-таба, видео

Печатать
Просмотров: 598
PARKWAY DRIVE

WILD EYES SOLO

B-F#-B-E-G#-C#

TABBED BY: LeonPWD

1:44

E|------------------------------------------------------------------------|
B|---------------------------3-5-5-3-5-3-3-5-5-3-5-3----------------------|
G|------------------------------------------------------------------------|
D|------------------------------------------------------------------------|
A|------------------------------------------------------------------------|
E|------------------------------------------------------------------------|

1:51

E|---------------------------------7--7-5--5------------------------------|
B|-3-5-5-3-5-3------5----3-------------------7b~--7-8-10b~----------------|
G|-------------2~-------------2-------------------------------------------|
D|------------------------------------------------------------------------|
A|------------------------------------------------------------------------|
E|------------------------------------------------------------------------|

1:59

E|------------------------------------------------------------------------|
B|-3-5-5-3-5-3------5----3---------8h5---5h8h5---5h8h5---5h8h5---5--------|
G|-------------2~-------------2--------7-------7-------7-------7----------|
D|------------------------------------------------------------------------|
A|------------------------------------------------------------------------|
E|------------------------------------------------------------------------|
E|------------------------------------------------------------------------|

Cont.

E|----------------------------7b~--5b~------------------------------------|
B|-10h7---7h10h7---7h10h7---7---------------------------------------------|
G|------9--------9--------9-----------------------------------------------|
D|------------------------------------------------------------------------|
A|------------------------------------------------------------------------|
E|------------------------------------------------------------------------|
E|------------------------------------------------------------------------|
Добавлено: 02.07.2013
Другие материалы по этой песне:

Страница создана 09.06.2013
http://primanota.ru/parkway-drive/wild-eyes-chords.htm
Привет, Гость.
Предлагаем пройти революционный курс по гитаре.
Подарок от PrimaNota.Ru, забирай!