PrimaNota.ru - самый крупный в мире бесплатный архив песенных текстов, аккордов, табулатур и нот


Norma Jean - The End Of All Things Will Be Televised - текст песни, таба, видео

Регистрация Запомнить меня
Войти через:  Facebook Google Twitter Vk Yandex Mail.ru

Norma Jean - The End Of All Things Will Be Televised - текст песни, таба, видео

Печатать
Просмотров: 92
The End of All Things Will be Televised - Norma Jean

Tabbed by: Matt Wilham
Email: matt_wlham88@hotmail.com

Tuning: Db Ab Db Gb Bb B

intro
 B|----2---2--2-xxxx----2-------2---2-----------------|
Bb|----2---2--2-xxxx----2-------2---2-----------------|
Gb|-------------xxxx----------------------------------|
Db|--0---00--0--xxxx--00---0000----0---xxxx--000------|
Ab|--0---00--0--xxxx--00---0000----0---xxxx--000------|
Db|--0---00--0--xxxx--00---0000----0---xxxx--000------|

guitar one (repeat through verse)
 B|-------------------------------------------|
Bb|-----4-44-4--------------------------------|
Gb|-----7-77-7\-------------------------------|
Db|-------------------------------------------|
Ab|-1-0---------------------------------------|
Db|-1-0---------------------------------------|
          ..

guitar two verse (playing staccato)
 B|-------------------------------------------|
Bb|--15---------------------------------------|
Gb|---x---------------------------------------|
Db|--12---------------------------------------|
Ab|-------------------------------------------|
Db|-------------------------------------------|

guitars pause

guitar one
 B|-------------------------------------------|
Bb|-------------------------------------------|
Gb|--7h10-(x8)--------------------------------|
Db|------------7h10-(x4)--10/8-888888---------|
Ab|-------------------------------------------|
Db|-------------------------------------------|

 B|-------------10-(x6)--------------10-(x4)---|
Bb|-------------10-(x6)--------------10-(x4)---|
Gb|--------------------------------------------|
Db|-------------------------\------------------|
Ab|---3b--0--6b----------0--\--6b--0-----------|
Db|---3b--0--6b----------0--\--6b--0-----------|

 B|-------------10-(x6)--------------10-hold---|
Bb|-------------10-(x6)--------------10-hold---|
Gb|--------------------------------------------|
Db|-------------------------\------------------|
Ab|---3b--0--6b----------0--\--6b--0-----------|
Db|---3b--0--6b----------0--\--6b--0-----------|


tonight the south is on fire! (part one?)
 B|-------------------------------------------|
Bb|-------------------------------------------|
Gb|-------------------------------------------|
Db|-------------------------------------------|
Ab|-0000----0000-0000-0000-0000-hold----------|
Db|-0000----0000-0000-0000-0000-hold----------|

tonight the south is on fire! (part 2?) repeat 4 times
 B|----------------------------------------------|
Bb|--------------------0-------------------------|
Gb|--------------------4b6-----------------------|
Db|-\\\-------\----------------------------------|
Ab|-\\\--0000-\-000-1-0--------------------------|
Db|-\\\--0000-\-000-1-0--------------------------|
                ... . .

i tried to tab out the rhythm to this the best i could

this part 2 times. only play whats in the parentheses the second time
 B|-----------------------------------------------------------|
Bb|-----------------------------------------------------------|
Gb|-----------------------------------------------------------|
Db|-0-xxx-00-xx-0-xxx-xxxx-00-xxx-0000-xxx-0-xxx-xxxxx-00-(0)-|
Ab|-1-xxx-11-xx-1-xxx-xxxx-11-xxx-1111-xxx-1-xxx-xxxxx-11-(1)-|
Db|-0-xxx-00-xx-0-xxx-xxxx-00-xxx-0000-xxx-0-xxx-xxxxx-00-(0)-|

guitar one
 B|-------------------------------------------|
Bb|-----4-44-4--------------------------------|
Gb|-----7-77-7\-------------------------------|
Db|-------------------------------------------|
Ab|-1-0---------------------------------------|
Db|-1-0---------------------------------------|
          ..

guitar two playing staccato
 B|-------------------------------------------|
Bb|--15---------------------------------------|
Gb|---x---------------------------------------|
Db|--12---------------------------------------|
Ab|-------------------------------------------|
Db|-------------------------------------------|

both guitars 4 times
 B|-------------10-(x6)--------------10-(x4)---|
Bb|-------------10-(x6)--------------10-(x4)---|
Gb|--------------------------------------------|
Db|-------------------------\------------------|
Ab|---3b--0--6b----------0--\--6b--0-----------|
Db|---3b--0--6b----------0--\--6b--0-----------|

guitar one 7 times
 B|-------------------------------------------|
Bb|----------6p0------------------------------|
Gb|--------------5p0-3p0----------------------|
Db|--xxxxxx-----------------------------------|
Ab|--xxxxxx-----------------------------------|
Db|--xxxxxx-----------------------------------|
   both guitars
 B|-------------|
Bb|-------------|
Gb|-------------|
Db|--xxxxxx-000-|
Ab|--xxxxxx-000-|
Db|--xxxxxx-000-|

both guitars 4 times
 B|--------------------------------------------|
Bb|--------------------------------------------|
Gb|--------------------------------------------|
Db|--------------------------------------------|
Ab|-8p0----------8p0----------8p0----------000-|
Db|-----10p0-7p0-----10p0-7p0-----10p0-7p0-000-|

 B|------|
Bb|------|
Gb|------|
Db|------|
Ab|-0~---|
Db|-0~---|

not sure what they're playing for the quiet part

guitar one (repeat until end)
 B|-------------------------------------------|
Bb|------4-------4---4----------4---4(x8)-----|
Gb|------7-------7---7----------7---7(x8)-----|
Db|-------------------------------------------|
Ab|--0000--00--00--00--0-0--0000--00------0---|
Db|--0000--00--00--00--0-0--0000--00------0---|
     ....  ..  ..  ..  . .  ....  ..      .

guitar two (repeat until end)
 B|------15------15--15---------15--15(x8)----|
Bb|------15------15--15---------15--15(x8)----|
Gb|-------------------------------------------|
Db|-------------------------------------------|
Ab|--0000--00--00--00--0-0--0000--00------0---|
Db|--0000--00--00--00--0-0--0000--00------0---|
     ....  ..  ..  ..  . .  ....  ..      .

i probably made a lot of mistakes in this, but it sounds right to me.
after all, this is said when you send it:

"Your tab must be ear-transcribed (you listen to the song, then tab out how you think it is played)"

so thats how i think its played. criticize on people. im used to it.
Добавлено: 27.08.2013
Другие материалы по этой песне:
  • Аккорды и текст

Страница создана 09.04.2012
http://primanota.ru/norma-jean/the-end-of-all-things-will-be-televised-chords.htm
Привет, Гость.
Предлагаем пройти революционный курс по гитаре.
Подарок от PrimaNota.Ru, забирай!