PrimaNota.ru - самый крупный в мире бесплатный архив песенных текстов, аккордов, табулатур и нот


Norma Jean - A Media Friendly Turn For The Worst - таба, видео

Регистрация Запомнить меня
Войти через:  Facebook Google Twitter Vk Yandex Mail.ru

Norma Jean - A Media Friendly Turn For The Worst - таба, видео

Печатать
Просмотров: 98
Уроки эстрадного вокала в Санкт-Петербурге
-----------------------------------------------------------------------------
A Media Friendly Turn For The Worst - Norma Jean
-----------------------------------------------------------------------------
Tabbed by: Zach Peterson
Email: ratracekid111@yahoo.com

Tuning: Drop C# (Drop D half step down)

Intro/Verse

Guitar 1

e|-------------------------------------------------------------------------|
B|-------------------------------------------------------------------------|
G|-------------------------------------------------------------------------|
D|-------------------------------------------------------------------------|
A|-------------------------------------------------------------------------|
E|-0-15h16p15p0h15---0-15h16p15p0h15---0-0-0-0-0-0-15h16p15p0h15—----------|

e|-------------------------------------------------------------------------|
B|-------------------------------------------------------------------------|
G|-------------------------------------------------------------------------|
D|-------------------------------------------------------------------------|
A|--------------5--------3-------------------------------------------------|
E|--0-3-0--3-------1b------------------------------------------------------|

Guitar 2

e|-------------------------------------------------------------------------|
B|-------------------------------------------------------------------------|
G|-------------------------------------------------------------------------|
D|-0~---------------(0)----------------0-0-0-0-0-0-------------------------|
A|-0~---------------(0)----------------0-0-0-0-0-0-------------------------|
E|-0~---------------(0)----------------0-0-0-0-0-0-------------------------|

(Add after first time through)

e|-------------------------------------------------------------------------|
B|-------------------------------------------------------------------------|
G|-------------------------------------------------------------------------|
D|-------------------------------------------------------------------------|
A|--------------5--------3-------------------------------------------------|
E|--0-3-0--3-------1b------------------------------------------------------|

Break 1

Both guitars

:39
e|-------------------------------------------------------------------------|
B|-6~----------------------------------------------------------------------|
G|-5~----------------------------------------------------------------------|
D|-3~----------------------------------------------------------------------|
A|-3~----------------------------------------------------------------------|
E|-3~----------------------------------------------------------------------|

Verse x1

Break 2

Both Guitars

:51
e|-------------------------------------------------------------------------|
B|-------------------------------------------------------------------------|
G|-------------------------------------------------------------------------|
D|-5----------------------------1-------------------0----------------------|
A|-5----------------------------1-------------------0----------------------|
E|-5----------------------------1-------------------0----------------------|

PreChorus
:57

Guitar 1

e|-------------------------------------------------------------------------|
B|-------------------------------------------------------------------------|
G|-----2-------------------------------------------------------------------|
D|---3---3-----------------------------------------------------------------|
A|-5-----------------------------------------------------------------------|
E|-----------x16-----------------------------------------------------------|

Guitar 2
1:03

e|-------------------------------------------------------------------------|
B|-------------------------------------------------------------------------|
G|-------------------------------------------------------------------------|
D|-0-----------------------------------------------------------------------|
A|-0-----------------------------------------------------------------------|
E|-0—x24-------------------------------------------------------------------|

Chorus

Guitar 1

1:10
e|-------------------------------------------------------------------------|
B|-------10----13----------------------11-10-------------------------------|
G|----10----10----10----10----10----10-------12-10-------------------------|
D|-12----------------12----12----12----------------------------------------|
A|-------------------------------------------------------------------------|
E|--------------------------------------------------x4---------------------|

1:26
e|-------------20----------------------18-17-15----------------------------|
B|----18----18----18-17-18----17----17----------18-------------------------|
G|-21----21----------------19----19----------------------------------------|
D|-------------------------------------------------------------------------|
A|-------------------------------------------------------------------------|
E|--------------------------------------------------x3---------------------|

Guitar 2

e|-------------------------------------------------------------------------|
B|-------------------------------------------------------------------------|
G|-------------------------------------------------------------------------|
D|-00000---0----0----00000---0-0-0---8-8-8-8-8-8-8-8-5-5-5-5-5-5-5-5-------|
A|-00000---0----0----00000---0-0-0---8-8-8-8-8-8-8-8-5-5-5-5-5-5-5-5-------|
E|-00000---0----0----00000---0-0-0---8-8-8-8-8-8-8-8-5-5-5-5-5-5-5-5-------|
   pmpm                         pmpm


(Just take some time to figure out the pattern, it's easier to find than to tab...)

Little riff at the end

e|-------------------------------------------------------------------------|
B|-------------------------------------------------------------------------|
G|-------------------------------------------------------------------------|
D|-------------------------------------------------------------------------|
A|-----12------------------------------------------------------------------|
E|--------15s12------------------------------------------------------------|

Bridge

Guitar 1

e|-0------------8-----------5-----------4----------------------------------|
B|-3------------11----------8-----------7----------------------------------|
G|-2------------10----------7-----------6----------------------------------|
D|-0------------8-----------5-----------4----------------------------------|
A|-0------------8-----------5-----------4----------------------------------|
E|-0------------8-----------5-----------4----------------------------------|

Guitar 2
e|-------------------------------------------------------------------------|
B|-------------------------------------------------------------------------|
G|-------------------------------------------------------------------------|
D|-0-(13(13(0(0(13----0-(13(13(0(0(13---0-0-0-0-----x4---------------------|
A|-------------------------------------------------------------------------|
E|-------------------------------------------------------------------------|

So the rest is pretty easy to figure out. Alot of repeated parts, a breakdown at the 
yaddayadda. Yeah, this tab is definetly not perfect. I would appreciate any corrections 
you may have.

************************************


| /   slide up
| \   slide down
| h   hammer-on
| p   pull-off
| ~   vibrato
| +   harmonic
| x   Mute note
| b   Bend
| pb  Pre-bend
| br  Bend release
| pbr Pre-bend release
| brb Bend release bend

************************************
Добавлено: 08.07.2013
Другие материалы по этой песне:
  • Аккорды и текст

Страница создана 08.07.2013
http://primanota.ru/norma-jean/a-media-friendly-turn-for-the-worst-chords.htm
Привет, Гость.
Предлагаем пройти революционный курс по гитаре.
Подарок от PrimaNota.Ru, забирай!