PrimaNota.ru - самый крупный в мире бесплатный архив песенных текстов, аккордов, табулатур и нот


Norma Jean - Murphy Was An Optimist - текст песни, таба, видео

Регистрация Запомнить меня
Войти через:  Facebook Google Twitter Vk Yandex Mail.ru

Norma Jean - Murphy Was An Optimist - текст песни, таба, видео

Печатать
Просмотров: 149
I like playing this song. I know the timing is wrong but deal with it


guitar 1
|--------------------------------------------------|
|--------------------------------------------------|
|--------------------------------------------------|
|---8--8--8--8--8--8--8--8--8--8--8--8--8--8--7--7-|
|--10-10-10-10-10-10-10-10-10-10-10-10-10-10--8--8-|
|--------------------------------------------------|


|--------------------------------------------------------------|
|--------------------------------------------------------------|
|--------------------------------------------------------------|
|---8--8--8--8--8--8--8--8--8--10--10--10--10--10--10--10--10--|x2
|--10-10-10-10-10-10-10-10-10--10--10--10--10--10--10--10--10--|
|--------------------------------------------------------------|




guitar 2 comes in- listen to the song for when
|----------------------------------|
|----------------------------------|
|----------------------------------|
|----------------------------------|
|--2/5-5---------------------------|
|--------5-4-4-4-4-4-4-4-4-4-4-4-4-|

|----------------------------------------------|
|----------------------------------------------|
|----------------------------------------------|
|----------------------------------------------|
|--2/5-5---------------------------------------|
|--------5-4-4-4-4-4-4-4-2~--4-4-4-4-4-4-4-4-4-|


guitar 2    both guitars (i think)
|----------|---------------------------|
|----------|---------------------------|
|----------|---------------------------|
|----------|---------------------------|
|--2/5-5-4-|-2-2-2-2-2-2-2-2-2-0-0-0-0-|
|--------4-|-2-2-2-2-2-2-2-2-2-0-0-0-0-|




then just guitar 2
|----------------------------------|
|----------------------------------|
|----------------------------------|
|----------------------------------|
|--2/5-5---------------------------|
|--------5-4-4-4-4-4-4-4-4-4-4-4-4-|

|----------------------------------------------|
|----------------------------------------------|
|----------------------------------------------|
|----------------------------------------------|
|--2/5-5---------------------------------------|
|--------5-4-4-4-4-4-4-4-2~--4-4-4-4-4-4-4-4-4-|



then both guitars
|------------------------------------|
|------------------------------------|
|------------------------------------|
|------------------------------------|
|--2/5-5-4-2-2-2-2-2--2-0-0-0-0--0-0-|
|--------4-2-2-2-2-2--2-0-0-0-0--0-0-|




then guitar 1
|-----------------|
|-----------------|
|-11--11-11-11-11-|
|-x---x--x--x--x--|
|-9---9--9--9--9--|
|-----------------|

after that guitar 2 
|-----------------|
|-----------------|
|-18--18-18-18-18-|
|--x---x--x--x--x-|
|-16--16-16-16-16-|
|-----------------|


then

guitar 1
|----------------------------------------------------------|
|----------------------------------------------------------|
|-14--14--14--14--14---13--13--13--13--13---7--7--7--7--7--|
|--x---x---x---x---x----x---x---x---x---x---x--x--x--x--x--| x2
|-12--12--12--12--12---11--11--11--11--11---9--9--9--9--9--|
|----------------------------------------------------------|


guitar 2- this is wrong i think
|----------------------------------------------------------|
|----------------------------------------------------------|
|-14--14--14--14--14---18--18--18--18--18---7--7--7--7--7--|
|--x---x---x---x---x----x---x---x---x---x---x--x--x--x--x--| x2
|-12--12--12--12--12---16--16--16--16--16---9--9--9--9--9--|
|----------------------------------------------------------|


i couldn't figure out the part that goes along with this
|-----------------------------------------------------------|
|-----------------------------------------------------------|
|-----------------------------------------------------------|
|-----------------------------------------------------------|
|-0-0-0-0-0--0-0-0-0-0--0-0-0-0-2-2-2-2-2--2-2-2-2-2--2-2-2-|
|-0-0-0-0-0--0-0-0-0-0--0-0-0-0-2-2-2-2-2--2-2-2-2-2--2-2-2-|


Thats all i got for now. Help me fix it if you find stuff thats wrong. 
Добавлено: 25.09.2013
Другие материалы по этой песне:

Страница создана 12.06.2013
http://primanota.ru/norma-jean/murphy-was-an-optimist-chords.htm
Привет, Гость.
Предлагаем пройти революционный курс по гитаре.
Подарок от PrimaNota.Ru, забирай!