PrimaNota.ru - самый крупный в мире бесплатный архив песенных текстов, аккордов, табулатур и нот


Norma Jean - A Media Friendly Turn For The Worse - текст песни, таба, видео

Регистрация Запомнить меня
Войти через:  Facebook Google Twitter Vk Yandex Mail.ru

Norma Jean - A Media Friendly Turn For The Worse - текст песни, таба, видео

Печатать
Просмотров: 106
Уроки эстрадного вокала в Санкт-Петербурге
-----------------------------------------------------------------
A Media Friendly Turn For The Worse - Norma Jean
-----------------------------------------------------------------
Tabbed by: Jake Miller (millarso)
Email: millarso2.0@gmail.com
Tuning: Drop Db
-----------------------------------------------------------------
Intro/Section 1

Guitar 1
eb|----------------------------------------------------------|
Bb|----------------------------------------------------------|    Intro Tag
Gb|----------------------------------------------------------|
Db|-0-33-00-3b-0-33-00-3b-0-0-0-0-0-0-33-00-3b-0-3-----------|x2|----------|
Ab|-0----------0----------0-0-0-0-0-0----------0-3-----5--3--|  |-----5--3-|
Eb|-0----------0----------0-0-0-0-0-0----------0-3-0-3--4----|  |-0-3--4---|

Guitar 2
eb|----------------------------------------------------------|
Bb|----------------------------------------------------------|
Gb|----------------------------------------------------------|
Db|-0---------------------0-0-0-0-0-0----------0-3-----------|x2|----------|
Ab|-0-(let-ring)----------0-0-0-0-0-0----------0-3-----5--3--|  |-----5--3-|
Eb|-0---------------------0-0-0-0-0-0----------0-3-0-3--4----|  |-0-3--4---|

Section 1 (x2, no tag)

Section 2
Guitar 1
eb|------------------------------------------------------------|
Bb|----66-33-6---66-33-6-------------66-33-6---66-33-6---------|
Gb|------------------------------------------------------------|
Db|-(3)--------0---------0-0-0-0-0-0---------0---------0-0-0-0-|
Ab|-(3)--------------------------------------------------------|
Eb|-(3)--------------------------------------------------------|

Guitar 2
eb|------------------------------------------------------------|
Bb|------------------------------------------------------------|
Gb|------------------------------------------------------------|
Db|--3---------------------------------------------------------|
Ab|--3-(let-ring)----------------------------------------------|
Eb|--3---------------------------------------------------------|

Both Guitars
eb|----------------------------------------------------------|
Bb|----------------------------------------------------------|
Gb|----------------------------------------------------------|
Db|-0-33-00-3b-0-33-00-3b-0-0-0-0-0-0-33-00-3b-0-3-----------|
Ab|-0----------0----------0-0-0-0-0-0----------0-3-----5--3--|
Eb|-0----------0----------0-0-0-0-0-0----------0-3-0-3--4----|

Guitar 1
eb|------------------------------------------------------------|
Bb|----66-33-6---66-33-6-------------66-33-6---66-33-6---------|
Gb|------------------------------------------------------------|
Db|-(5)--------0---------0-0-0-0-0-0---------0---------0-0-0-0-|
Ab|-(5)--------------------------------------------------------|
Eb|-(5)--------------------------------------------------------|

Guitar 2
eb|------------------------------------------------------------|
Bb|------------------------------------------------------------|
Gb|------------------------------------------------------------|
Db|--5-----------------------------1---------------------------|
Ab|--5-(let-ring)------------------1-(let-ring)----------------|
Eb|--5-----------------------------1---------------------------|

Section 3
Guitar 1                   Guitar 2 (after first 8 bars of Guitar 1)
eb|-----------------|      eb|---------|
Bb|-----------------|      Bb|---------|
Gb|-----2-------2---|      Gb|---------|
Db|---3---3---3---3-|x16   Db|-0-0-0-0-|x8
Ab|-5-------5-------|      Ab|-0-0-0-0-|
Eb|-----------------|      Eb|-0-0-0-0-|
                               . . . .

Section 4
Guitar 1
eb|-------------------------------------|
Bb|-----10--13-10--10-10--10--11-10-----|
Gb|---10--10-----10-----10--10-----10---|
Db|-12-------------------------------12-|
Ab|-------------------------------------|
Eb|-------------------------------------|

Guitar 2
eb|-------------------------------------|
Bb|-------------------------------------|
Gb|-------------------------------------|
Db|-----0--------------0----------0-----|
Ab|-00000--------------0----------0-----|
Eb|-00000--------------0----------0-----|
    ....
Guitar 1
eb|----------------------------------------------------|
Bb|-----10--13-10--10----10----10--10----10--11-10-----|
Gb|---10--10-----10----10----10--10----10--10-----10---|
Db|-12---------------12----12--------12-------------12-|
Ab|----------------------------------------------------|
Eb|----------------------------------------------------|

Guitar 2
eb|----------------------------------------------------|
Bb|----------------------------------------------------|
Gb|----------------------------------------------------|
Db|-----0-------0-0-0-8-----------5--------------------|
Ab|-00000-------0-0-0-8-(x8)------5-(x8)---------------|
Eb|-00000-------0-0-0-8-----------5--------------------|
    ....

Guitar 1
eb|-------------------------------------------------------------------------|
Bb|-----10--13-10--10-10--10--11-10---------10--13-10--10-10--10--11-10-----|
Gb|---10--10-----10-----10--10-----10-----10--10-----10-----10--10-----10---|
Db|-12-------------------------------12-12-------------------------------12-|
Ab|-------------------------------------------------------------------------|
Eb|-------------------------------------------------------------------------|

Guitar 2
eb|-------------------------------------------------------------------------|
Bb|-------------------------------------------------------------------------|
Gb|-------------------------------------------------------------------------|
Db|-----0--------------0----------0----0-8-----------------5----------------|
Ab|-00000--------------0----------0----0-8-(x8)------------5-(x8)-----------|
Eb|-00000--------------0----------0----0-8-----------------5----------------|
    ....

Section 5
eb|---------|
Bb|---------|
Gb|---------|
Db|-0-0-0-0-|x4
Ab|-0-0-0-0-|(slowly let off of the PM)
Eb|-0-0-0-0-|
    . . . .

Section 6
Guitar 1
eb|-----17--20-17--17-17--17--18-17---------17--20-17--17-17--17--18-17-----|
Bb|---18--18-----18-----18--18-----18-----18--18-----18-----18--18-----18---|
Gb|-19-------------------------------19-19-------------------------------19-|
Db|-------------------------------------------------------------------------|
Ab|-------------------------------------------------------------------------|
Eb|-------------------------------------------------------------------------|

Guitar 2
eb|-------------------------------------------------------------------------|
Bb|-------------------------------------------------------------------------|
Gb|-------------------------------------------------------------------------|
Db|-8----------------0-5---------------------0-------------0----------0-----|
Ab|-8-(x7)-----------0-5-(x8)------------00000-------------0----------0-----|
Eb|-8----------------0-5-----------------00000-------------0----------0-----|
                                         ....

eb|-----17--20-17--17-17--17-----------|
Bb|---18--18-----18-----18--18---------|
Gb|-19---------------------------------|
Db|------------------------------------|
Ab|------------------------------------|
Eb|------------------------------------|

eb|------------------------------------|
Bb|------------------------------------|
Gb|------------------------------------|
Db|--8------------0-5-5-5-5---/8-7---0-|
Ab|--8-(x7)-------0-5-5-5-5--------8---|
Eb|--8------------0-5-5-5-5------------|

Transition
eb|-----------------------------------|
Bb|-----------------------------------|
Gb|----Guitar-1-----------------------|
Db|-0-(33-00-3b)-0-(33-00-3b)-0-0-0-0-|
Ab|-0------------0------------0-0-0-0-|
Eb|-0------------0------------0-0-0-0-|

Section 7
Guitar 1
eb|---------------------------------------------------------------|
Bb|---66-33-6---66-33-6-------------66-33-6---66-33-6-------------|
Gb|---------------------------------------------------------------|
Db|-0---------0---------0-0-0-0-0-0---------0---------0-0-0-0-0-0-|
Ab|---------------------------------------------------------------|
Eb|---------------------------------------------------------------|

Guitar 2
eb|---------------------------------------------------------------|
Bb|---------------------------------------------------------------|
Gb|---------------------------------------------------------------|
Db|-3---------------------------0---------------------------------|
Ab|-5---------------------------1---------------------------------|
Eb|---------------------------------------------------------------|

Guitar 1
eb|---------------------------------------------------------------|
Bb|-------66-33-6---66-33-6-------------66-33-6---66-33-6---------|
Gb|---------------------------------------------------------------|
Db|-----0---------0---------0-0-0-0-0-0---------0---------0-0-0-0-|
Ab|---------------------------------------------------------------|
Eb|---------------------------------------------------------------|

eb|---------------------------------------------------------------|
Bb|---------------------------------------------------------------|
Gb|---------------------------------------------------------------|
Db|-0---5---------------------------4-----------------------------|
Ab|-0---5---------------------------4-----------------------------|
Eb|-----5---------------------------4-----------------------------|

Section 8
Guitar 1
eb|--------------------------------------|
Bb|-6-------3-------3-3------------------|
Gb|-7-(x16)-3-(x14)-2-2-3-------3--------|
Db|---------------------5-(x16)-4-(x16)--|
Ab|--------------------------------------|
Eb|--------------------------------------|

Guitar 2
eb|--------------------------------------|
Bb|--------------------------------------|
Gb|--------------------------------------|
Db|-3-------0-------0-0-5-------4--------|
Ab|-5-(x16)-1-(x14)-0-0-5-(x16)-4-(x16)--|
Eb|---------------------5-------4--------|

Section 2 (x1) - replace first bar with...
Guitar 1
eb|-----------------------------------------------------------|
Bb|---66-33-6---66-33-6-------------55-33-5---44-33-4---------|
Gb|-----------------------------------------------------------|
Db|-0---------0---------0-0-0-0-0-0---------0---------0-0-0-0-|
Ab|-----------------------------------------------------------|
Eb|-----------------------------------------------------------|

Guitar 2
eb|-----------------------------------------------------------|
Bb|-----------------------------------------------------------|
Gb|-----------------------------------------------------------|
Db|-3---------------------------2---------------1--1--1--1--1-|
Ab|-3---------------------------2---------------1--1--1--1--1-|
Eb|-3---------------------------2---------------1--1--1--1--1-|
...and in the "both guitars" section play |3x3---| instead of the 3s. Just listen to the track.

Section 5 (x1)
Section 4 (x1)
Section 5 (x1)
Section 6 (x1)

Section 7
Both Guitars
eb|-----------------------------------|
Bb|-----------------------------------|
Gb|-----------------------------------|
Db|---33----3----33----3--------------|x2
Ab|---xx----x----xx----x--------------|
Eb|-0-33-00-3--0-33-00-3--0-0-0-0-0-0-|

Guitar 1
eb|----------------------------------------------------------|
Bb|----------------------------------------------------------|
Gb|----------------------------------------------------------|
Db|---66-33-6--66-33-6-------------66-33-6---66-33-6---------|
Ab|----------------------------------------------------------|
Eb|-0--------0---------0-0-0-0-0-0---------0---------0-0-0-0-|

Guitar 1
eb|----------------------------------------------------------|
Bb|----------------------------------------------------------|
Gb|----------------------------------------------------------|
Db|---33-00-3--33-00-3-------------33-00-3---33-00-3---------|
Ab|----------------------------------------------------------|
Eb|-0--------0---------0-0-0-0-0-0---------0---------0-0-0-0-|

Section 8
eb|-------------------------------------------------------------------------5------|
Bb|--------------6\-------------------6-\---------------------------------6---6----|
Gb|--------7-----7\-----------7-----7---\-------------------------------7-------7--|
Db|--------------------------------------------------------------------------------|
Ab|-0-0-0--------------0-0-0----------------0-0-0--------------0-0-0---------------|
Eb|-0-0-0--------------0-0-0----------------0-0-0--------------0-0-0---------------|
    . . .              . . .                . . .              . . .
Guitar 1 plays the high notes above

Both Guitars
eb|------------------------------|
Bb|------------------------------|
Gb|------------------------------|
Db|-0-0-0------0-0-0-----0----0--|x2
Ab|-0-0-0------0-0-0---0-0--0-0--|
Eb|-0-0-0------0-0-0---0-0--0-0--|
                       .    .

eb|------------------------------|
Bb|------------------------------|
Gb|------------------------------|
Db|-0-0-0------0-0-0-----0----0--|x2
Ab|-0-0-0------0-0-0---0-0--0-0--|
Eb|-0-0-0------0-0-0---0-0--0-0--|
    . . .      . . .   .    .

Section 9/Outro (similar to Section 1)
Guitar 1
eb|---------------------------------------------------------|
Bb|---------------------------------------------------------|
Gb|---------------------------------------------------------|        2nd Ending
Db|-0-33-00-3b-0-33-00-3b-0-0-0-0-0-0-33-00-3b-0-3----------|x2|-------------------0-|
Ab|-0----------0----------0-0-0-0-0-0----------0-3-----5--3-|  |-----5--3-----5--3-0-|
Eb|-0----------0----------0-0-0-0-0-0----------0-3-0-3--4---|  |-0-3--4---0-3--4---0-|

Guitar 2
eb|----------------------------------------------------------|
Bb|----------------------------------------------------------|
Gb|----2nd-time----------------------------------------------|
Db|-0-(66-33-6-0-66-33-6)-0-0-0-0-0-0-(66-33-6)-0-3----------|x2|-------------------0-|
Ab|-0---------(0)---------0-0-0-0-0-0-----------0-3-----5--3-|  |-----5--3-----5--3-0-|
Eb|-0---------(0)---------0-0-0-0-0-0-----------0-3-0-3--4---|  |-0-3--4---0-3--4---0-|

Might be slightly difficult to follow the song structure as there are many
derivatives of the main riff, but hopefully this helps.
Please rate & comment.
Thanks,
millarso
Добавлено: 16.06.2013
Другие материалы по этой песне:
  • Аккорды и текст

Страница создана 16.06.2013
http://primanota.ru/norma-jean/a-media-friendly-turn-for-the-worse-chords.htm
Привет, Гость.
Предлагаем пройти революционный курс по гитаре.
Подарок от PrimaNota.Ru, забирай!