PrimaNota.ru - самый крупный в мире бесплатный архив песенных текстов, аккордов, табулатур и нот


Norma Jean - And There Will Be A Swarm Of Hornets - текст песни, таба, видео

Регистрация Запомнить меня
Войти через:  Facebook Google Twitter Vk Yandex Mail.ru

Norma Jean - And There Will Be A Swarm Of Hornets - текст песни, таба, видео

Печатать
Просмотров: 128
---------------------------------------------------------------------
	   And There Will Be A Swarm Of Hornets - Norma Jean
---------------------------------------------------------------------

Tabbed by: Kristyn Lee

Tuning: Drop C


intro
D|-------------------------------------------------------------|
A|-------------------------------------------------------------|
F|-------------------------------------------------------------|x2
C|-------------------------------------------------------------|
G|-8-7-0-0--10-7-0-0-0--0-3-5-5-5--0-8-3-3-0-3-----------------|
C|-8-7-0-0--10-7-0-0-0--0-3-5-5-5--0-8-3-3-0-3-----------------|


0:29         verse
D|-------------------------------------------------------------| 
A|-------------------------------------------------------------|
F|-666666666-555555555-----------------------------------------|
C|---------------------7777777777-6666666666-------------------|
G|-------------------------------------------------------------|
C|-------------------------------------------------------------|

0:36
D|-------------------------------------------------------------|
A|-------------------------------------------------------------|
F|----------------------------------1212121212121212-----------|
C|----------------------------------x-x-x-x-x-x-x-x------------|
G|-8-7-0-3-5--8-7-0-3-5--8-7-0-3-5--1010101010101010-----------|
C|-8-7-0-3-5--8-7-0-3-5--8-7-0-3-5-----------------------------|

0:43
D-------------------------------------------------------------|
A-------------------------------------------------------------|
F-6666666666-5555555555---------------------------------------|
C-----------------------7777777777-6666666666-----------------|
G-------------------------------------------------------------|
C-------------------------------------------------------------|

0:49
D--------------------------------------------------------------|
A|-------------------------------------------------------------|
F|-------------------------------------------------------------|x2
C|-------------------------------------------------------------|
G|-8-7-0-0--10-7-0-0-0--0-3-5-5-5--0-8-3-3-0-3-----------------|
C|-8-7-0-0--10-7-0-0-0--0-3-5-5-5--0-8-3-3-0-3-----------------|

1:06
D|-------------------------------------------------------------|
A|-------------------------------------------------------------|
F|-666666666-555555555-----------------------------------------|
C|---------------------7777777777-66666666666------------------|
G|-------------------------------------------------------------|
C|-------------------------------------------------------------|

1:12
D|-------------------------------------------------------------|
A|-------------------------------------------------------------|
F|----------------------------------1212121212121212-----------|
C|----------------------------------x-x-x-x-x-x-x-x------------|
G|-8-7-0-3-5--8-7-0-3-5--8-7-0-3-5--1010101010101010-----------|
C|-8-7-0-3-5--8-7-0-3-5--8-7-0-3-5-----------------------------|

1:19
D|-------------------------------------------------------------|
A|-------------------------------------------------------------|
F|-666666666-555555555-----------------------------------------|
C|---------------------7777777777-66666666666------------------|
G|-------------------------------------------------------------|
C|-------------------------------------------------------------|

1:25
D|-------------------------------------------------------------|
A|-------------------------------------------------------------|
F|-------------------------------------------------------------|x2
C|-------------------------------------------------------------|
G|-8-7-0-0--10-7-0-0-0--0-3-5-5-5--0-8-3-3-0-3-----------------|
C|-8-7-0-0--10-7-0-0-0--0-3-5-5-5--0-8-3-3-0-3-----------------|

1:39
D|--------------------------------------------------------------|
A|--------------------------------------------------------------|
F|--------------------------------------------------------------|
C|-66666-66666-66666-------66666-66666-66666--------------------|
G|-44444-44444-44444-7-7-7-44444-44444-44444-7-7-7--------------|
C|-------------------7-7-7-------------------7-7-7--------------|


1:50         "what you can't pull from me..."
D|--------------------------------------------------------------|
A|------------9---7---------------------------------------------|
F|---6------6---6-----------------------------------------------|
C|-7---6^-------------------------------------------------------|
G|--------------------------------------------------------------|
c|--------------------------------------------------------------|

1:55
D|----------------------------------------------------------------------|
A|----------------------------------------------------------------------|
F|----------------------------------------------------------------------|
C|-666-----666-------666------------666-6----666-6----666-6-------------|
G|-444-6h7-444-4h6p4-444-6h7-77-7h9-444---4\-444---4\-444---4\-77-7h9p7-|
C|---------------------------77--------------------------------77-------|

   "pull from yourself..."
D|------------------------------------------------------------------|
A|------------------------------------------------------------------|
F|------------------------------------------------------------------|
C|-666-7^-666-7^-666-7^----66666-66666-66666------------------------|
G|-444----444----444----77-44444-44444-44444---777-7-77-5-7-0~------|
C|----------------------77---------------------777-7-77-5-7-0~------|

2:21
D|---------------------------------------|
A|---------------------------------------|
F|------------2-222----------------------|x8
C|-6666-6666--0-000----------------------|
G|-4444-4444--------4-444----------------|
C|------------------4-444----------------|

3:17
D|----------------------------------------|
A|----------------------------------------|
F|----------------------------------------|x2
C|-6-66666-----66666-6-66666-----66666----|
G|-4-44444-3h4-44444-4-44444-3h4-44444----|
C|----------------------------------------|
     .....     .....   .....     .....

3:31
D|-------------------------------------------------------------|
A|-------------------------------------------------------------|
F|-------------------------------------------------------------|x4
C|-------------------------------------------------------------|
G|-8-7-0-0--10-7-0-0-0--0-3-5-5-5--0-8-3-3-0-3-----------------|
C|-8-7-0-0--10-7-0-0-0--0-3-5-5-5--0-8-3-3-0-3-----------------|

3:58
D|-----------------------------------------|
A|-----------------------------------------|
F|-----------------------------------------|
C|-----------------------------------------|
G|-0~-0~-0~-0~-0~-0~-0~-0~-0~-0~-0~-0~-----|
C|-0~-0~-0~-0~-0~-0~-0~-0~-0~-0~-0~-0~-----|

4:15
D|-----------------------------------|
A|-----------------------------------|
F|-----------------------------------|x3
C|-----------------------------------|
G|-------------------7-7-7-----------|
C|-00000-00000-00000-7-7-7-----------|

4:34
D|--------------------------------------|
A|--------------------------------------|
F|--------------------------------------|
C|--------------------------------------|
G|-0-0-9*--0-0-9*-0-0-9*--7-7-7---------|
C|-0-0-----0-0----0-0-----7-7-7---------|


The last few bars are pretty much the same.
I'm too lazy to tab them.


| . palm mute
| /  slide up
| \  slide down
| h  hammer-on
| p  pull-off
| ~  vibrato
| *  harmonic
| x  Mute note
======================================================================
Добавлено: 24.08.2013
Другие материалы по этой песне:
  • Аккорды и текст

Страница создана 10.08.2013
http://primanota.ru/norma-jean/and-there-will-be-a-swarm-of-hornets-chords.htm
Привет, Гость.
Предлагаем пройти революционный курс по гитаре.
Подарок от PrimaNota.Ru, забирай!