PrimaNota.ru - самый крупный в мире бесплатный архив песенных текстов, аккордов, табулатур и нот


Nine Lashes - You Are The Light - таба, бас-таба, видео

Регистрация Запомнить меня
Войти через:  Facebook Google Twitter Vk Yandex Mail.ru

Nine Lashes - You Are The Light - таба, бас-таба, видео

Печатать
Просмотров: 303
-------------------------------------------------------------------------------
                        You Are The Light - Nine Lashes
-------------------------------------------------------------------------------
Tabbed by: StevenBeaven90
E-mail: stevenkotelnikov@Gmail.com
Feel free to email me if you have any questions about this tab or any other of my tabs.
No cover video for this tab for now. I have to wait for a new laptop so I can do some
business with GarageBand.

September 18th, 2014 Update: I didn't find out until today that the name was changed 
from 'Fear and Shadows' to 'You Are The Light.' The song's title is no longer an error.

Tuning: Drop A#
This tab has both lead and rhythm guitars.

[Intro](0:15-0:31)(x2)
Rhythm Guitar
C|---------------------------------------------------------------------------|
G|---------------------------------------------------------------------------|
D#|--------------------------------------------------------------------------|
a#|-7-------10-------3-------0-----------------------------------------------|
F|--7-(x8)--10-(x8)--3-(x8)--0-(x8)------------------------------------------|
A#|-7-------10-------3-------0-----------------------------------------------|

Lead Guitar(x2)
C|---------------------------------------------------------------------------|
G|--------------8-------8----------------------------------------------------|
D#|-9---7---7-----9-9-----9---9---10-9---7---7---10-7-7---9-----5---5--------|
a#|---7---7---7-------7-----7---7------7---7---7--------7---7-7---7----------|
F|---------------------------------------------------------------------------|
A#|--------------------------------------------------------------------------|

[Verse I](0:31-0:47)(Neither guitar plays)

[Pre-chorus I](0:47-0:59)(Neither guitar plays)

[Chorus I](0:59-1:32)(Same for Guitar 1 as it is in Intro, but play through four times instead 
of two)
Lead Guitar
C|-17-17-17-17----------20-19-19-17-17----17----20---------------------------|
G|-------------17-17-17----------------17----17------------------------------|
D#|--------------------------------------------------------------------------|
a#|--------------------------------------------------------------------------|
F|---------------------------------------------------------------------------|
A#|--------------------------------------------------------------------------|

C|-17-17-17-17----------20-19-19-17-17----17----20---------------------------|
G|-------------17-17-17----------------17----17------------------------------|
D#|--------------------------------------------------------------------------|
a#|--------------------------------------------------------------------------|
F|---------------------------------------------------------------------------|
A#|--------------------------------------------------------------------------|

C|-17-17-17-17----------20-19-19-17-17----17----20---------------------------|
G|-------------17-17-17----------------17----17------------------------------|
D#|--------------------------------------------------------------------------|
a#|--------------------------------------------------------------------------|
F|---------------------------------------------------------------------------|
A#|--------------------------------------------------------------------------|

C|-17-17-17-17----------20-19-19-17-17----17----20---------------------------|
G|-------------17-17-17----------------17----17------------------------------|
D#|--------------------------------------------------------------------------|
a#|--------------------------------------------------------------------------|
F|---------------------------------------------------------------------------|
A#|--------------------------------------------------------------------------|

C|---------------------------------------------------------------------------|
G|--------------8-------8----------------------------------------------------|
D#|-9---7---7-----9-9-----9---9---10-9---7---7---10-7-7---9-----5---5--------|
a#|---7---7---7-------7-----7---7------7---7---7--------7---7-7---7----------|
F|---------------------------------------------------------------------------|
A#|--------------------------------------------------------------------------|

C|---------------------------------------------------------------------------|
G|--------------8-------8----------------------------------------------------|
D#|-9---7---7-----9-9-----9---9---10-9---7---7---10-7-7---9-----5---5--------|
a#|---7---7---7-------7-----7---7------7---7---7--------7---7-7---7----------|
F|---------------------------------------------------------------------------|
A#|--------------------------------------------------------------------------|

[Verse 2](1:32-1:47)(The guitar playing here is very fast but simple. For every 
bass drum hit, the lead guitarist plays four notes)
Lead Guitar
C|-17(x124)------------------------------------------------------------------|
G|---------------------------------------------------------------------------|
D#|--------------------------------------------------------------------------|
a#|--------------------------------------------------------------------------|
F|---------------------------------------------------------------------------|
A#|--------------------------------------------------------------------------|

[Pre-chorus II](1:47-1:59)
Lead Guitar
C|-------------13----13----13----13----12----12----12----12----12----12----12|
G|-9/12\10--17----17----17----17----15----15----15----15----10----10----10---|
D#|--------------------------------------------------------------------------|
a#|--------------------------------------------------------------------------|
F|---------------------------------------------------------------------------|
A#|--------------------------------------------------------------------------|

C|----12----12----12----12-------------13----13----13----13----12----12------|
G|-10----10----10----10----9/12\10--17----17----17----17----15----15---------|
D#|--------------------------------------------------------------------------|
a#|--------------------------------------------------------------------------|
F|---------------------------------------------------------------------------|
A#|--------------------------------------------------------------------------|

[Chorus II](1:59-2:32)(Same for both guitars as it is in Chorus I)

[Bridge](2:32-2:56)
Rhythm Guitar
C|---------------------------------------------------------------------------|
G|---------------------------------------------------------------------------|
D#|-10------------------------10---------------------------------------------|
a#|-10-(x16)--7-------5-------10-(x8)--7-------10-------12-------------------|
F|--8---------7-(x8)--5-(x8)--8--------7-(x8)--10-(x4)--12-(x4)--------------|
A#|-----------7-------5----------------7-------10-------12-------------------|

C|---------------------------------------------------------------------------|
G|---------------------------------------------------------------------------|
D#|-10-----------------------------------------------------------------------|
a#|-10-(x16)--5--------------------------------------------------------------|
F|--8---------5-(x12)--------------------------------------------------------|
A#|-----------5--------------------------------------------------------------|

[Chorus III](2:56-3:28)(Same for both guitars as it is in Chorus I)

[Outroduction](3:28-3:38)
Rhythm Guitar
C|---------------------------------------------------------------------------|
G|---------------------------------------------------------------------------|
D#|--------------------------------------------------------------------------|
a#|-3------------------------------------------------------------------------|
F|--3-(Let ring)-------------------------------------------------------------|
A#|-3------------------------------------------------------------------------|

************************************

| /   slide up
| \   slide down
| x   Mute note

************************************
Добавлено: 28.11.2014
Другие материалы по этой песне:
  • Аккорды и текст

Страница создана 28.11.2014
http://primanota.ru/nine-lashes/you-are-light-chords.htm
Привет, Гость.
Предлагаем пройти революционный курс по гитаре.
Подарок от PrimaNota.Ru, забирай!