PrimaNota.ru - самый крупный в мире бесплатный архив песенных текстов, аккордов, табулатур и нот


Nine Lashes - Adrenaline - текст песни, таба, видео

Регистрация Запомнить меня
Войти через:  Facebook Google Twitter Vk Yandex Mail.ru

Nine Lashes - Adrenaline - текст песни, таба, видео

Печатать
Просмотров: 629
Уроки эстрадного вокала в Санкт-Петербурге
Artist: Nine Lashes (feat. Trevor McNevan of Thousand Foot Krutch)
Song: Adrenaline
Album: World We View
Tuning: Drop C

Intro:

(Repeat 4X)
D|-------------------------------------------|
A|-------------------------------------------|
F|-------------------------------------------|
C|--14\--14\---------------------------------|
G|--14\--14\---------------------------------|
C|--14\--14\---------------------------------|

Main Riff:

D|---------------------------------------------|
A|---------------------------------------------|
F|---------------------------------------------|
C|--2--0-2h3-2--0--x5----2--0-2h3-2--0-xx0--x--|
G|--2--0-2h3-2--0--x5----2--0-2h3-2--0-xx0--x--|
C|--2--0-2h3-2--0--x5----2--0-2h3-2--0-xx0--x--|

D|---------------------------------------------|
A|---------------------------------------------|
F|---------------------------------------------|
C|--2--0-2h3-2--0--x5----2--0-2h3-2--0-xxxx----|
G|--2--0-2h3-2--0--x5----2--0-2h3-2--0-xxxx----|
C|--2--0-2h3-2--0--x5----2--0-2h3-2--0-xxxx----|

Verse 1:

D|--------------------------------------------|
A|--------------------------------------------|
F|--------------------------------------------|
C|--------------------------------------------|
G|--------------------------------------------|
C|--(2x16)-(11x8)-(7x8)--(2x16)-(11x8)-(5x8)--| 

D|----------------------------------------|
A|----------------------------------------|
F|----------------------------------------|
C|--2-2-2--2-2-2--2-x-2-2-2---------------|
G|--2-2-2--2-2-2--2-x-2-2-2---------------|
C|--2-2-2--2-2-2--2-x-2-2-2-(11x8)-(7x8)--|

D|----------------------------------------|
A|----------------------------------------|
F|----------------------------------------|
C|--2-2-2--2-2-2--2-x-2-2-2---------------|
G|--2-2-2--2-2-2--2-x-2-2-2---------------|
C|--2-2-2--2-2-2--2-x-2-2-2-(11x8)-(5x8)--|

Bridge 1:

D|----------------------------------------------------------|
A|----------------------------------------------------------|
F|----------------------------------------------------------|
C|--2-2--2-2--2-2--2-2--2-2--2-5-5--5-5--0-0--0-0--2h3p2p0--|
G|--2-2--2-2--2-2--2-2--2-2--2-5-5--5-5--0-0--0-0--2h3p2p0--|
C|--2-2--2-2--2-2--2-2--2-2--2-5-5--5-5--0-0--0-0--2h3p2p0--|
    * *  * *  * *  * *  * *  * * *  * *  * *  * *  
D|----------------------------------------------------------|
A|----------------------------------------------------------|
F|----------------------------------------------------------|
C|--2-2--2-2--2-2--2-2--2-2--2-5-5--5-5--0-0----------------|
G|--2-2--2-2--2-2--2-2--2-2--2-5-5--5-5--0-0----------------|
C|--2-2--2-2--2-2--2-2--2-2--2-5-5--5-5--0-0----------------|
    * *  * *  * *  * *  * *  * * *  * *  * *
Pre-Chorus 1:

(Repeat 2x)
D|----------------------------------------------|
A|----------------------------------------------|
F|----------------------------------------------|
C|--2--0-2h3-2--0--x5---------------------------|
G|--2--0-2h3-2--0--x5---------------------------|
C|--2--0-2h3-2--0--x5---------------------------|

Chorus 1:

(Repeat 2x)
D|-----------------------------------------------|
A|-----------------------------------------------|
F|--4--4--4--4--7--7--7--7-----------------------|
C|--x--x--x--x--x--x--x--x-----------------------|
G|--5--5--5--5--9--9--9--9-----------------------|
C|--5--5--5--5--9--9--9--9-----------------------|

D|------------------------------------------------|
A|------------------------------------------------|
F|------------------------------------------------|
C|--0h2--x-x-0h2-x-x-x-x-x-x-0h2--x-x-0h2--x-7p5--|
G|--0h2--x-x-0h2-x-x-x-x-x-x-0h2--x-x-0h2--x-7p5--|
C|--0h2--x-x-0h2-x-x-x-x-x-x-0h2--x-x-0h2--x-7p5--|

Verse 2:

D|--------------------------------------------|
A|--------------------------------------------|
F|--------------------------------------------|
C|--------------------------------------------|
G|--------------------------------------------|
C|--(2x16)-(11x8)-(7x8)--(2x16)-(11x8)-(5x8)--| 

D|----------------------------------------|
A|----------------------------------------|
F|----------------------------------------|
C|--2-2-2--2-2-2--2-x-2-2-2---------------|
G|--2-2-2--2-2-2--2-x-2-2-2---------------|
C|--2-2-2--2-2-2--2-x-2-2-2-(11x8)-(7x8)--|

D|----------------------------------------|
A|----------------------------------------|
F|----------------------------------------|
C|--2-2-2--2-2-2--2-x-2-2-2---------------|
G|--2-2-2--2-2-2--2-x-2-2-2---------------|
C|--2-2-2--2-2-2--2-x-2-2-2-(11x8)-(5x8)--|

Bridge 2:

D|----------------------------------------------------------|
A|----------------------------------------------------------|
F|----------------------------------------------------------|
C|--2-2--2-2--2-2--2-2--2-2--2-5-5--5-5--0-0--0-0--2h3p2p0--|
G|--2-2--2-2--2-2--2-2--2-2--2-5-5--5-5--0-0--0-0--2h3p2p0--|
C|--2-2--2-2--2-2--2-2--2-2--2-5-5--5-5--0-0--0-0--2h3p2p0--|
    * *  * *  * *  * *  * *  * * *  * *  * *  * *  
D|----------------------------------------------------------|
A|----------------------------------------------------------|
F|----------------------------------------------------------|
C|--2-2--2-2--2-2--2-2--2-2--2-5-5--5-5--0-0----------------|
G|--2-2--2-2--2-2--2-2--2-2--2-5-5--5-5--0-0----------------|
C|--2-2--2-2--2-2--2-2--2-2--2-5-5--5-5--0-0----------------|
    * *  * *  * *  * *  * *  * * *  * *  * *
Pre-Chorus 2:

(Repeat 2x)
D|----------------------------------------------|
A|----------------------------------------------|
F|----------------------------------------------|
C|--2--0-2h3-2--0--x5---------------------------|
G|--2--0-2h3-2--0--x5---------------------------|
C|--2--0-2h3-2--0--x5---------------------------|

Chorus 2:

(Repeat 2x)
D|-----------------------------------------------|
A|-----------------------------------------------|
F|--4--4--4--4--7--7--7--7-----------------------|
C|--x--x--x--x--x--x--x--x-----------------------|
G|--5--5--5--5--9--9--9--9-----------------------|
C|--5--5--5--5--9--9--9--9-----------------------|

D|------------------------------------------------|
A|------------------------------------------------|
F|------------------------------------------------|
C|--0h2--x-x-0h2-x-x-x-x-x-x-0h2--x-x-0h2--x-7p5--|
G|--0h2--x-x-0h2-x-x-x-x-x-x-0h2--x-x-0h2--x-7p5--|
C|--0h2--x-x-0h2-x-x-x-x-x-x-0h2--x-x-0h2--x-7p5--|

Breakdown:

(Bass Solo - Repeat 2x)

F|-------------------------------------|
C|-------------------------------------|
G|-------------------------------------|
C|--0h222220h22222220h222220h2227p555--|

(Guitar - Repeat 2x)
D|------------------------------------------------|
A|------------------------------------------------|
F|------------------------------------------------|
C|--0h2--x-x-0h2-x-x-0h2--0h2--x-x-0h2-x-x-7p555--|
G|--0h2--x-x-0h2-x-x-0h2--0h2--x-x-0h2-x-x-7p555--|
C|--0h2--x-x-0h2-x-x-0h2--0h2--x-x-0h2-x-x-7p555--|

Outro:

(Repeat 3x)
D|-----------------------------------------------|
A|-----------------------------------------------|
F|--4--4--4--4--7--7--7--7-----------------------|
C|--x--x--x--x--x--x--x--x-----------------------|
G|--5--5--5--5--9--9--9--9-----------------------|
C|--5--5--5--5--9--9--9--9-----------------------|

D|------------------------------------------------|
A|------------------------------------------------|
F|------------------------------------------------| 
C|--0h2--x-x-0h2-x-x-x-x-x-x-0h2--x-x-0h2--x-7p5--|
G|--0h2--x-x-0h2-x-x-x-x-x-x-0h2--x-x-0h2--x-7p5--|
C|--0h2--x-x-0h2-x-x-x-x-x-x-0h2--x-x-0h2--x-7p5--|

(Last time through)

D|-----------------------------------------------|
A|-----------------------------------------------|
F|--4--4--4--4--7--7--7--7-----------------------|
C|--x--x--x--x--x--x--x--x-----------------------|
G|--5--5--5--5--9--9--9--9-----------------------|
C|--5--5--5--5--9--9--9--9-----------------------|

D|----------------------------|
A|----------------------------|
F|----------------------------| 
C|--0h2--x-x-0h2-x-x-x-x-x-x--|
G|--0h2--x-x-0h2-x-x-x-x-x-x--|
C|--0h2--x-x-0h2-x-x-x-x-x-x--|
Добавлено: 30.04.2014
Другие материалы по этой песне:
  • Аккорды и текст

Страница создана 28.09.2013
http://primanota.ru/nine-lashes/adrenaline-chords.htm
Привет, Гость.
Предлагаем пройти революционный курс по гитаре.
Подарок от PrimaNota.Ru, забирай!