PrimaNota.ru - самый крупный в мире бесплатный архив песенных текстов, аккордов, табулатур и нот


Nine Lashes - Get Back - текст песни, бас-таба, видео

Регистрация Запомнить меня
Войти через:  Facebook Google Twitter Vk Yandex Mail.ru

Nine Lashes - Get Back - текст песни, бас-таба, видео

Печатать
Просмотров: 255
INTRO

F|---------------------------------|
C|---------------------------------| 2 TIMES
G|---------------------------------|
C|-3-3-3-3-5-5-5-5-3-3-3-3-7-7-7-7-|

VERSE

F|-----------------------------------------|
C|-----------------------------------------| 3 TIMES 
G|-----------------------------------------|
C|-5-3-5---3-5-1-3---5-1-3---5-0-2---5-2-4-|

F|-----------------------------------------|
C|-----------------------------------------|  
G|-----------------------------------------|
C|-5-3-5---3-5-1-3---5-1-3---5-0-2---3-3-3-|

CHORUS

F|---------------------------------|
C|---------------------------------| 2 TIMES  
G|---------------------------------|
C|-1-1-1-1-3-3-3-3-5-5-5-5-7-7-7-7-|

INTRO

F|---------------------------------|
C|---------------------------------| 
G|---------------------------------|
C|-3-3-3-3-5-5-5-5-3-3-3-3-7-7-7-7-|

VERSE

F|---------------------------------|
C|---------------------------------| 
G|---------------------------------|
C|-3-5-1-3---5-1-3---5-0-2---5-2-4-|

F|-----------------------------------------|
C|-----------------------------------------| 2 TIMES 
G|-----------------------------------------|
C|-5-3-5---3-5-1-3---5-1-3---5-0-2---5-2-4-|

F|-----------------------------------------|
C|-----------------------------------------|  
G|-----------------------------------------|
C|-5-3-5---3-5-1-3---5-1-3---5-0-2---3-3-3-|

CHORUS

F|---------------------------------|
C|---------------------------------| 2 TIMES  
G|---------------------------------|
C|-1-1-1-1-3-3-3-3-5-5-5-5-7-7-7-7-|

INTRO

F|---------------------------------|
C|---------------------------------| 
G|---------------------------------|
C|-3-3-3-3-5-5-5-5-3-3-3-3-7-7-7-7-|

BRIDGE

F|-----------------------------|
C|-----------------------------| 
G|-----------------------------|
C|-3-3-1-4-4-1-5-5-5-5-6-6-6-6-|

F|-----------------------------------|
C|-----------------------------------| 5 TIMES
G|-----------------------------------|
C|-7-7-7-7-5-7-7-7-7-8-8-8-8-9-9-9-9-|

BREAK FOR 15 SECONDS, THEN:

F|-----------------------------------------|
C|-----------------------------------------| 
G|-----------------------------------------|
C|-5-1-3---1-1-1-1-3-3-3-3-5-5-5-5-7-7-7-7-|

F|---------------------------------|
C|---------------------------------|  
G|---------------------------------|
C|-1-1-1-1-3-3-3-3-5-5-5-5-7-7-7-7-|

INTRO

F|-------------------------|
C|-------------------------|
G|-------------------------|
C|-3-3-3-3-5-5-5-5-3-3-3-3-|

I could't find something useful in Enternet for making this tab, so there is just my hearing skill. :D  
Добавлено: 28.11.2015
Другие материалы по этой песне:
  • Аккорды и текст

Страница создана 21.07.2014
http://primanota.ru/nine-lashes/get-back-chords.htm
Привет, Гость.
Предлагаем пройти революционный курс по гитаре.
Подарок от PrimaNota.Ru, забирай!