PrimaNota.ru - самый крупный в мире бесплатный архив песенных текстов, аккордов, табулатур и нот


Nine Lashes - Break The World - таба, видео

Регистрация Запомнить меня
Войти через:  Facebook Google Twitter Vk Yandex Mail.ru

Nine Lashes - Break The World - таба, видео

Печатать
Просмотров: 162
Уроки эстрадного вокала в Санкт-Петербурге
Nine Lashes - Break The World

Tabbed By: Bart Baart
Drop A#
slide: /
Optional: ( )

[INTRO]
no guitar

[VERSE ONE]
c |------------------------------------
g |------------------------------------
d#|------------------------------------
a#|--0-2--0-2-2-2---7/10-10--10-10-7-7-
f |--0-2--0-2-2-2---7/10-10--10-10-7-7-
a#|--0-2--0-2-2-2---7/10-10--10-10-7-7-


c |----------------------------------
g |----------------------------------
d#|----------------------------------
a#|--0-2--0-2-2-2---7/10-10--7-7-5-5-
f |--0-2--0-2-2-2---7/10-10--7-7-5-5-
a#|--0-2--0-2-2-2---7/10-10--7-7-5-5-


[VERSE TWO]
c |---------------------------------------------
g |---------------------------------------------
d#|---------------------------------------------
a#|---------------------------------------------
f |-------5/7-------------------5/7-------------
a#|--0-2-------0-2---2--2--0-2-------0-2---2--2-


c |-----------------------------------------------
g |-----------------------------------------------
d#|-----------------------------------------------
a#|-----------------------------------------------
f |--------7/9----------10/9-------------5/7------
a#|---5/7------7--10-10------10/9---0-2-------0-2-


[PRE-CHORUS ONE]          [CHORUS ONE]
c |--------------         --------------------------------------------------
g |--------------         --------------------------------------------------
d#|--------------         --------------------------------------------------
a#|--10-----2----         ----------------------------------2-2-2----0--0-0-
f |--10-----2----         ----------------------------------2-2-2----0--0-0-
a#|--10-----2----         --2-2-2-5-9-9-9-5-0-0-0-7-7-7-7-9-2-2-2----0--0-0-


c |--------------------------------------------------
g |--------------------------------------------------
d#|--------------------------------------------------
a#|----------------------------------2-2-2----0--0-0-
f |----------------------------------2-2-2----0--0-0-
a#|--2-2-2-5-9-9-9-5-0-0-0-7-7-7-7-9-2-2-2----0--0-0-


[VERSE ONE]


[VERSE TWO]


[PRE-CHORUS ONE]


[CHORUS ONE]


[BRIDGE]
no guitar


[PRE-CHORUS TWO]                [CHORUS TWO]
c |------------------(7)-       ---------------------------------------------------
g |------------------(5)-       ---------------------------------------------------
d#|----------------------       ---------------------------------------------------
a#|--2-2-2----0--0-0-----       -----------------------------------2-2-2----0--0-0-
f |--2-2-2----0--0-0-----       -----------------------------------2-2-2----0--0-0-
a#|--2-2-2----0--0-0-----       --2-2-2-5-9-9-9-5-0-12-0-7-7-7-7-9-2-2-2----0--0-0-


[VERSE ONE]
c |------------------------------------
g |------------------------------------
d#|------------------------------------
a#|--0-2--0-2-2-2---7/10-10--10-10-7-7-
f |--0-2--0-2-2-2---7/10-10--10-10-7-7-
a#|--0-2--0-2-2-2---7/10-10--10-10-7-7-


c |----------------------------------
g |----------------------------------
d#|----------------------------------
a#|--0-2--0-2-2-2---7/10-10--7-7-5-5-
f |--0-2--0-2-2-2---7/10-10--7-7-5-5-
a#|--0-2--0-2-2-2---7/10-10--7-7-5-5-

I also have a video: https://www.youtube.com/watch?v=EdUEoOyZJpM

Thanks to:
episgscustom: https://www.youtube.com/watch?v=YFV6lJ2-eDU
Добавлено: 21.06.2016
Другие материалы по этой песне:

Страница создана 21.06.2016
http://primanota.ru/nine-lashes/break-world-chords.htm
Привет, Гость.
Предлагаем пройти революционный курс по гитаре.
Подарок от PrimaNota.Ru, забирай!