PrimaNota.ru - самый крупный в мире бесплатный архив песенных текстов, аккордов, табулатур и нот


Nine Lashes - Never Back Down - таба, видео

Регистрация Запомнить меня
Войти через:  Facebook Google Twitter Vk Yandex Mail.ru

Nine Lashes - Never Back Down - таба, видео

Печатать
Просмотров: 183
-------------------------------------------------------------------------------
                         NEVER BACK DOWN - Nine Lashes
-------------------------------------------------------------------------------
Tabbed by: GaleForceRock
E-mail: galeforce100@icloud.com

Tuning: Drop C

Riff Pt.1
D|---------------------------------------------------------------------------|
A|---------------------------------------------------------------------------|
F|---------------------------------------------------------------------------|
C|---------------------------------------------------------------------------|
G|-5-------------------------------------------------------------------------|
C|-----0---0-0---0-3-0---0-8-7-5-7~--0---0-0---0-3-0---0-5-5-3-3-------------|

Riff Pt.2
D|---------------------------------------------------------------------------|
A|---------------------------------------------------------------------------|
F|---------------------------------------------------------------------------|
C|---------------------------------------------------------------------------|
G|-5---------------------------------------------1-1-1-3-3-3-0-0-------------|
C|-----0---0-0---0-3-0---0-8-7-5-7~--0---0-0---0-----------------------------|

Verse Pt.1
D|---------------------------------------------------------------------------------------|
A|---------------------------------------------------------------------------------------|
F|---------------------------------------------------------------------------------------|
C|---------------------------------------------------------------------------------------|
G|-5--------------------------------------------------------------------------------3--4-|
C|-----0---0-0---0-3-0-----0---0-0---0-3-0-----5---5-5---5-5-5-----3---3-3---3-3-3-------|

Verse Pt.2
D|-----------------------------------------------------------------------------------------|
A|-----------------------------------------------------------------------------------------|
F|-----------------------------------------------------------------------------------------|
C|-----------------------------------------------------------------------------------------|
G|-5----------------------------------------------------------------------------------3--4-|
C|-----0---0-0---0-3-0--6b~--0---0-0---0-3-0-----5---5-5---5-5-5-----3---3-3---3-3-3-------|

Pre-chorus
D|-------------------------------------------------------------------------------------------------------|
A|-------------------------------------------------------------------------------------------------------|
F|-------------------------------------------------------------------------------------------------------|
C|-------------------------------------------------------------------------------------------------------|
G|---------------------3-3-3-3-1-1-1-1---1-1-1-1---0-0-0-0-----------------------------1-1-1-1---1-1-1-1-|
C|-0-0-0-0---0-0-0-0---------------------------------------5-5-5-5---5-5-5-5---3-3-3-3-------------------|

Chorus (Figure out strumming)
D|-----------------------------|
A|-----------------------------|
F|-----------------------------|
C|-0-----10-----5-----8---10---|
G|-0-----10-----5-----8---10---|
C|-0-----10-----5-----8---10---|

Riff (Same as before)

Verse (Same as before)

Pre-chorus (Same as before)

Chorus (Same as before)

Bridge (Figure out strumming)
D|---------------------------------------------|
A|---------------------------------------------|
F|---------------------------------------------|
C|-12---11---5---3---12---11---10---9---8---8\-|
G|-12---11---5---3---12---11---10---9---8---8\-|
C|-12---11---5---3---12---11---10---9---8---8\-|

Chorus (Same as before)

Riff Pt.1 (Same as before)

Riff Pt.2
D|---------------------------------------------------------------------------|
A|---------------------------------------------------------------------------|
F|---------------------------------------------------------------------------|
C|---------------------------------------------------------------------------|
G|-5---------------------------------------------1-1-1-3-3-3-0-0-------------|
C|-----0---0-0---0-3-0---0-8-7-5-7~--0---0-0---0-----------------0-----------|


************************************

| /   slide up
| \   slide down
| h   hammer-on
| p   pull-off
| ~   vibrato
| +   harmonic
| x   Mute note
| b   Bend
| pb  Pre-bend
| br  Bend release
| pbr Pre-bend release
| brb Bend release bend

************************************
Добавлено: 28.11.2015
Вам также может быть интересно:
Другие материалы по этой песне:

Страница создана 28.11.2015
http://primanota.ru/nine-lashes/never-back-down-chords.htm
Привет, Гость.
Предлагаем пройти революционный курс по гитаре.
Подарок от PrimaNota.Ru, забирай!