PrimaNota.ru - самый крупный в мире бесплатный архив песенных текстов, аккордов, табулатур и нот


Nine Lashes - The Void - текст песни, таба, видео

Регистрация Запомнить меня
Войти через:  Facebook Google Twitter Vk Yandex Mail.ru

Nine Lashes - The Void - текст песни, таба, видео

Печатать
Просмотров: 501
Уроки эстрадного вокала в Санкт-Петербурге
Tuning : Drop C
 
Intro:

D-|-----------------------------------------------------|
A-|--------5---------6-------8--------6-----10----------|
F-|-----7-----------------------------------------------|
C-|---7---7--------8--------8--------7-----10-----------|
G-|-5------------5--------5--------5-----7--------------|
C-|-----------------------------------------------------|    (x3)


Pre-Chorus:

D-|-----5---5-----3---3-----6---3-6-----5---5-----3---3-----5---3-5------|
A-|3-3----3---3-3---3---3-3---3-----3-3---3---3-3---3---3-3---3----------|
F-|----------------------------------------------------------------------|
C-|----------------------------------------------------------------------|
G-|----------------------------------------------------------------------|
C-|----------------------------------------------------------------------|

D-|----5---5-----3---3-----6---3-6-----5---5------3----------------------|
A-|3-3---3---3-3---3---3-3---3-----3-3---3---3-3----3-3------------------|
F-|----------------------------------------------------------------------|
C-|----------------------------------------------------------------------|
G-|----------------------------------------------------------------------|
C-|----------------------------------------------------------------------|


Chorus:

Lead Guitar    

D-|---17-18-15-17-------17-18-15-17--------17-18-15-17-------17-------15---|
A-|15-------------18-15-------------18-15--------------18-15----18--13--13-|
F-|------------------------------------------------------------------------|
C-|------------------------------------------------------------------------|
G-|------------------------------------------------------------------------|
C-|------------------------------------------------------------------------|

D-|---17-18-15-17-------17-18-15-17------------------------------------------------|
A-|15-------------18-15-------------15---------------------------------------------|
F-|--------------------------------------------------------------------------------|
C-|-------------------------------------8-8-8-10-10-10-8-8-8-10-10-10-8-8-10-10----|
G-|-------------------------------------8-8-8----------8-8-8----------8-8----------|
C-|-------------------------------------8-8-8----------8-8-8----------8-8----------|

D-|----------------------------|
A-|----------------------------|
F-|----------------------------|
C-|-5--5-5--3-3---0-0--0--0-0--|
G-|-5--5-5--3-3---0-0--0--0-0--|
C-|-5--5-5--3-3---0-0--0--0-0--|

Rythm Guitar   

D-|-------------------------------------------------------------------------|
A-|-------------------------------------------------------------------------|
F-|-------------5-5-5---5-5-------------------------------------------------|
C-|-0-0-0--0-0--5-5-5---5-5--8-8-8--8--8----10-10-10-10--3-3-3-3------------|
G-|-0-0-0--0-0--3-3-3---3-3--5-5-5--5--5----8--8--8--8---3-3-3-3------------|
C-|-0-0-0--0-0---------------5-5-5--5--5----8--8--8--8---3-3-3-3------------|

D-|------------------------------------------------------------------------|
A-|------------------------------------------------------------------------|
F-|-------------5-5-5---5-5------------------------------------------------|
C-|-0-0-0--0-0--5-5-5---5-5-----8-8-8-10-10-10-8-8-8-10-10-10-8-8-10-10----|
G-|-0-0-0--0-0--3-3-3---3-3-----8-8-8----------8-8-8----------8-8----------|
C-|-0-0-0--0-0------------------8-8-8----------8-8-8----------8-8----------|

D-|----------------------------|
A-|----------------------------|
F-|----------------------------|
C-|-5--5-5--3-3---0-0--0--0-0--|
G-|-5--5-5--3-3---0-0--0--0-0--|
C-|-5--5-5--3-3---0-0--0--0-0--|


Then play intro but only (x2). After that  play pre-chorus, then Chorus and go to bridge. 
               
               Bridge:


D-|-----------------------------------------------------------------------|
A-|-----------------------------------------------------------------------|
F-|-7-7-7-7-7-7-7-7-7-7-7-7-7-7-10-10--6-6-6-6-6-6-6-6-6-6-6-6-6-6-6------|
C-|-5-5-5-5-5-5-5-5-5-5-5-5-5-5--8--8--4-4-4-4-4-4-4-4-4-4-4-4-4-4-4------|
G-|-5-5-5-5-5-5-5-5-5-5-5-5-5-5--8--8--4-4-4-4-4-4-4-4-4-4-4-4-4-4-4------|
C-|-----------------------------------------------------------------------| 

D-|-------------------------------------------------------|
A-|-------------------------------------------------------|
F-|-15-15-15-15-15-15-15-15-15-15-15-15-15-15-15-15-------|
C-|-13-13-13-13-13-13-13-13-13-13-13-13-13-13-13-13-------|
G-|-13-13-13-13-13-13-13-13-13-13-13-13-13-13-13-13-------|
C-|-------------------------------------------------------|

D-|----------------------------------------------------|
A-|----------------------------------------------------|
F-|-13-13-13-13-13-13-13-13-12-12-12-12-12-12-12-12----|
C-|-11-11-11-10-11-11-11-11-10-10-10-10-10-10-10-10----|
G-|-11-10-11-11-11-11-11-11-10-10-10-10-10-10-10-10----|
C-|----------------------------------------------------|
                
            All bridge again then chorus again and that's all :)


Добавлено: 28.08.2014
Другие материалы по этой песне:
  • Аккорды и текст

Страница создана 13.09.2013
http://primanota.ru/nine-lashes/the-void-chords.htm
Привет, Гость.
Предлагаем пройти революционный курс по гитаре.
Подарок от PrimaNota.Ru, забирай!