PrimaNota.ru - самый крупный в мире бесплатный архив песенных текстов, аккордов, табулатур и нот


My Dying Bride - The Blood The Wine The Roses - текст песни, таба, бас-таба, видео

Регистрация Запомнить меня
Войти через:  Facebook Google Twitter Vk Yandex Mail.ru

My Dying Bride - The Blood The Wine The Roses - текст песни, таба, бас-таба, видео

Печатать
Просмотров: 98
================================================================================
                           M Y   D Y I N G   B R I D E

                                        -

          T H E   B L O O D,   T H E   W I N E,   T H E   R O S E S
================================================================================


                            A LINE OF DEATHLESS KINGS
                          (c) Peaceville Records (2006)
                           http://www.mydyingbride.org/


                             Tune Down  1 & 1/2 Steps
                                 C# F# B E G# C#

                                  Tempo = 96 BPM
                               Time Signature = 4/4



                          -----------------------------
                                  Transcribed by

                                  PADDY MCMULLAN
                            pmtabs (@t) gmail [dot] com

                                   Version 1.0
                                 13th July 2012

                                   For Skye ;)
                             -----------------------

                             Tablature Symbols Used:


 p         -  Pull-Off
 h         -  Hammer-On
 P.M...    -  Palm Mute
 \         -  Slide Down to/Down From
 /         -  Slide Up To/Up From
 ( / )     -  Legato Slide
 ( )       -  Ghost Note/Tied Note/Implied Note
 REST      -  Rest and sustain rest for duration of blank space
 |_3_|     -  Triplet Notes
 |__[1,2]  -  Alternative Endings
 x         -  Dead Note/Muted Note
 [5]       -  Tremolo Picking


================================================================================
Section 1: Guitars 1 & 2 with Heavy Distortion                 [ 00:00 - 00:26 ]
================================================================================


---------
Guitar 1:
---------


||-------------------|----------------------||--------------------------|
||--R--            --|--              ------||--------------------------|
||--E--            --|--              ------||--------------------------|
||--S--            --|--              ------||--9-----------9-----------|
||--T--            --|---             --5 / ||--7-------5 / 7-------5 / |
||-------------------|------------------3 / ||--7----0--3 / 7----0--3 / |
                                                    ...         ...

|-------------------------|--------------------------|
|-------------------------|--------------------------|
|-------------------------|--------------------------|
|-------------------------|--9-----------9-----------|
|--9-------9--8-------5 / |--7-------5 / 7-------5 / |
|--7----0--7--6----0--3 / |--7----0--3 / 7----0--3 / |
       ...        ...            ...         ...

|---------------------------|--------------------------|
|---------------------------|--------------------------|
|---------------------------|--------------------------|
|---------------------------|--9-----------9-----------|
|--9--------------------5 / |--7-------5 / 7-------5 / |
|--7----0--8-7-6~~---0--3 / |--7----0--3 / 7----0--3 / |
       ...          ...            ...         ...

|-------------------------|--------------------------|
|-------------------------|--------------------------|
|-------------------------|--------------------------|
|-------------------------|--9-----------9-----------|
|--9-------9--8-------5 / |--7-------5 / 7-------5 / |
|--7----0--7--6----0--3 / |--7----0--3 / 7----0--3 / |
       ...        ...            ...         ...

|----------------------------||
|----------------------------||
|----------------------------||
|----------------------------||
|--9---------------8p7-8--7--||
|--7----0--8-7-6~~-----------||
       ...



---------
Guitar 2:
---------


||-------------------|----------------------||--------------------------|
||--R--            --|--              ------||--------------------------|
||--E--            --|--              ------||--------------------------|
||--S--            --|--              ------||--9-----------9-----------|
||--T--            --|---             --5 / ||--7-------5 / 7-------5 / |
||-------------------|------------------3 / ||--7----0--3 / 7----0--3 / |
                                                    ...         ...

|-------------------------|--------------------------|
|-------------------------|--------------------------|
|-------------------------|--------------------------|
|-------------------------|--9-----------9-----------|
|--9-------9--8-------5 / |--7-------5 / 7-------5 / |
|--7----0--7--6----0--3 / |--7----0--3 / 7----0--3 / |
       ...        ...            ...         ...

|----------------------------|--------------------------|
|----------------------------|--------------------------|
|----------------------------|--------------------------|
|----------------------------|--9-----------9-----------|
|--9-------10-9-8~~------5 / |--7-------5 / 7-------5 / |
|--7----0-------------0--3 / |--7----0--3 / 7----0--3 / |
       ...           ...            ...         ...

|-------------------------|--------------------------|
|-------------------------|--------------------------|
|-------------------------|--------------------------|
|-------------------------|--9-----------9-----------|
|--9-------9--8-------5 / |--7-------5 / 7-------5 / |
|--7----0--7--6----0--3 / |--7----0--3 / 7----0--3 / |
       ...        ...            ...         ...

|----------------------------||
|----------------------------||
|----------------------------||
|----------------------------||
|--9---------------8p7-8--7--||
|--7----0--3-2-1~~-----------||
       ...



================================================================================
Section 2: Guitars 1 & 2                                       [ 00:26 - 01:06 ]
================================================================================


---------
Guitar 1:
---------


||------------------------------|------------------------------|
||------------------------------|------------------------------|
||------------------------------|------------------------------|
||------------------------------|------------------------------|
||--7~~---------------8p7-8--7--|--5~~---------------8p7-8--7--|
||------0-0-0--0-0-0------------|------0-0-0--0-0-0------------|
        ............                   ............

                               |__________________________________[1,2,3]
|------------------------------|--------------------------------------| |
|------------------------------|--------------------------------------| |
|------------------------------|--------------------------------------|*|
|------------------------------|--(7\6)-6----6h7-(9h10p9p7)-(9p7\6h7)-|*| x 4
|--7~~---------------8p7-8--7--|--------------------------------------| |
|------0-0-0--0-0-0------------|--------------------------------------| |
       ............

|___________________________________[4]
|------------------------------------||
|------------------------------------||
|------------------------------------||
|--(7\6)-6----6h7-9-7-12-11-9-11-- \-||
|------------------------------------||
|------------------------------------||



---------
Guitar 2:
---------


||------------------------------|------------------------------|
||------------------------------|------------------------------|
||------------------------------|------------------------------|
||------------------------------|------------------------------|
||--7~~---------------8p7-8--7--|--5~~---------------8p7-8--7--|
||------0-0-0--0-0-0------------|------0-0-0--0-0-0------------|
        ............                   ............


|------------------------------|
|------------------------------|
|------------------------------|
|------------------------------|
|--7~~---------------8p7-8--7--|
|------0-0-0--0-0-0------------|
       ............

|___________________________________________[1,2,3]
|-----------------------------------------------| |
|-----------------------------------------------| |
|-----------------------------------------------|*|
|--(10\9)-9~~---9h10-(12h13p12p10)-(12p10\9h10)-|*| x 4
|-----------------------------------------------| |
|-----------------------------------------------| |

|___________________________________[4]
|------------------------------------||
|------------------------------------||
|------------------------------------||
|--(7\6)-6----6h7-9-7-12-11-9-11-- \-||
|------------------------------------||
|------------------------------------||



================================================================================
Section 3: Guitars 1 & 2                                       [ 01:06 - 01:46 ]
================================================================================


---------
Guitar 1:
---------


||---------------------|---------------------|---------------------|
||---------------------|---------------------|---------------------|
||---------------------|---------------------|---------------------|
||---------------------|--7------------------|--9------------------|
||--9---------------0--|--5---------------0--|--7---------------0--|
||--7---------------0--|--5---------------0--|--7---------------0--|
                   ...                   ...                   ...


                                            |_________________[1,2,3]
|---------------------|---------------------|---------------------| |
|---------------------|---------------------|---------------------| |
|---------------------|---------------------|---------------------|*|
|--7------------------|---------------------|--7------------------|*| x 4
|--9---------------0--|--9---------------0--|--5---------------0--| |
|--9---------------0--|--7---------------0--|--5---------------0--| |
                  ...                   ...                   ...


|______________________[4]
|-----------------------||
|-----------------------||
|-----------------------||
|--7------------ \------||
|--9------------ \--5 / ||
|--9------------ \--3 / ||



---------
Guitar 2:
---------


||---------------------|---------------------|---------------------|
||---------------------|---------------------|---------------------|
||---------------------|---------------------|---------------------|
||---------------------|--4------------------|--6------------------|
||--9---------------0--|--5---------------0--|--7---------------0--|
||--7---------------0--|--5---------------0--|--7---------------0--|
                   ...                   ...                   ...


|---------------------| |
|---------------------| |
|---------------------|*|
|--7------------------|*| x 2
|--9---------------0--| |
|--9---------------0--| |
                  ...


                                              Note the variation here
||---------------------|---------------------|---------------------|
||---------------------|---------------------|---------------------|
||---------------------|---------------------|---------------------|
||---------------------|--4------------------|--5------------------|
||--9---------------0--|--5---------------0--|--7---------------0--|
||--7---------------0--|--5---------------0--|--7---------------0--|
                   ...                   ...                   ...

|_____________________[1]
|---------------------| |
|---------------------| |
|---------------------|*|
|--7------------------|*| x 2
|--9---------------0--| |
|--9---------------0--| |
                  ...


|______________________[2]
|-----------------------||
|-----------------------||
|-----------------------||
|--7------------ \------||
|--9------------ \--5 / ||
|--9------------ \--3 / ||



================================================================================
Repeat Section 1 from Bar 3                                    [ 01:46 - 02:06 ]
================================================================================

================================================================================
Repeat Section 2                                               [ 02:06 - 02:46 ]
================================================================================

================================================================================
Repeat Section 3 with the following variations:                [ 02:46 - 03:35 ]
================================================================================


Repeat Section 3 as is, replacing the final bar with the following:


|-----------|------------|------------|------------||
|-----------|------------|------------|------------||
|-----------|------------|------------|------------||
|-----------|------------|------------|------------||
|--9--------|--(9)-------|--(9)-------|--(9)-------||
|--7--------|--(7)-------|--(7)-------|--(7)-------||


Hold the chord, allowing it to ring out.


================================================================================
Section 4: Lead Guitars 1 & 2 with Heavy Distortion            [ 03:35 - 03:56 ]
================================================================================


--------------
Lead Guitar 1:
--------------


||---------------------|--------------------| |
||---------------------|--------------------| |
||---------------------|--------------------|*|
||---------------------|--------------------|*| x 4
||------------5--------|--------------------| |
||- /7-----------------|--3--------2--------| |


The first bar is replaced with the following for the 2nd, 3rd and 4th repeats:


||--------------------|
||--------------------|
||--------------------|
||--------------------|
||--2--------5--------|
||--------------------|



On the final repeat, hold the last note and allow it to ring out.



--------------
Lead Guitar 2:
--------------


||-------------------------|--------------------|------------------------|
||-------------------------|--------------------|------------------------|
||-------------------------|--------------------|------------------------|
||--------------------9----|--8~~---------------|-------------------9----|
||- /7------7-9-10---------|--------------------|--7------7-9-10---------|
||-------------------------|--------------------|------------------------|


|-------------------------|------------------------|--------------------|
|-------------------------|------------------------|--------------------|
|-------------------------|------------------------|--------------------|
|--8------9-- /11~~-------|-------------------9----|--8~~---------------|
|-------------------------|--7------7-9-10---------|--------------------|
|-------------------------|------------------------|--------------------|


|--------------------------|--------------------|--------------------||
|--------------------------|--------------------|--------------------||
|--------------------------|--------------------|--------------------||
|--------------------------|-----------4--------|--(4)~~-------------||
|--7------7-9-10--- \-5----|--4-----------------|--------------------||
|--------------------------|--------------------|--------------------||



Hold the last note and allow it to ring out.



================================================================================
Section 5: Guitars 1 & 2                                       [ 03:56 - 04:21 ]
================================================================================


---------
Guitar 1:
---------


||----------------------||-----------------------|------------------------|
||--R--           ------||------R--         -----|------------------------|
||--E--           ------||------E--         -----|------------------------|
||--S--           --12--||--11--S--         --9--|--7-----------------12--|
||--T--           --10--||--9---T--         --7--|--5--9--9-----------10--|
||------------------10--||--9-----------------7--|--5--7--7-----------10--|


|--------------------------|------------------------|-------------------------|
|------R- ---------R- -----|------------------------|------R- --------R- -----|
|------E- ---------E- -----|------------------------|------E- --------E- -----|
|--11--S- --11--9--S- --9--|--7-----------------12--|--11--S- --11-9--S- --7--|
|--9---T- --9---7--T- --7--|--5--9--9-----------x---|--x---T- --x--x--T- --x--|
|--9--------9---7-------7--|--5--7--7-----------10--|--9--------9--7-------5--|


|-------------------------|-------------------------|-------------------------|
|-------------------------|------R- --------R- -----|-------------------------|
|-------------------------|------E- --------E- -----|-------------------------|
|--7 / 9--9-----------12--|--11--S- --11-9--S- --7--|--7 / 9--9-----------12--|
|--x---x--x-----------x---|--x---T- --x--x--T- --x--|--x---x--x-----------x---|
|--5 / 7--7-----------10--|--9--------9--7-------5--|--5 / 7--7-----------10--|


|-------------------------|--------------------------||
|------R- --------R- -----|--------------------------||
|------E- --------E- -----|--------------------------||
|--11--S- --11-9--S- --7--|--7 / 9--9------------ \--||
|--x---T- --x--x--T- --x--|--x---x--x----------------||
|--9--------9--7-------5--|--5 / 7--7------------ \--||



The first bar is an overlap with the last bar of the previous section.



---------
Guitar 2:
---------


||-------------------||------------------------|------------------------|
||--R--            --||--R--  ---------R- -----|------------------------|
||--E--            --||--E--  ---------E- -----|------------------------|
||--S--            --||--S--  --11--9--S- --9--|--7-----------------12--|
||--T--            --||--T--  --9---7--T- --7--|--5--9--9-----------10--|
||-------------------||---------9---7-------7--|--5--7--7-----------10--|


|--------------------------|------------------------|--------------------------|
|------R- ---------R- -----|------------------------|------R- ---------R- -----|
|------E- ---------E- -----|------------------------|------E- ---------E- -----|
|--11--S- --11--9--S- --9--|--7-----------------12--|--11--S- --11--9--S- --9--|
|--9---T- --9---7--T- --7--|--5--9--9-----------10--|--9---T- --9---7--T- --7--|
|--9--------9---7-------7--|--5--7--7-----------10--|--9--------9---7-------7--|


|------------------------|--------------------------|------------------------|
|------------------------|------R- ---------R- -----|------------------------|
|------------------------|------E- ---------E- -----|------------------------|
|--7-----------------12--|--11--S- --11--9--S- --9--|--7-----------------12--|
|--5--9--9-----------10--|--9---T- --9---7--T- --7--|--5--9--9-----------10--|
|--5--7--7-----------10--|--9--------9---7-------7--|--5--7--7-----------10--|


|--------------------------|-------------------------||
|------R- ---------R- -----|-------------------------||
|------E- ---------E- -----|-------------------------||
|--11--S- --11--9--S- --9--|--7----------------------||
|--9---T- --9---7--T- --7--|--5--9--9------------ \--||
|--9--------9---7-------7--|--5--7--7------------ \--||



The first bar is an overlap with the last bar of the previous section.



================================================================================
Section 6: Guitars 1 & 2                                       [ 04:21 - 04:40 ]
================================================================================


---------
Guitar 1:
---------


||-------------------|-------------------------------|----------------------|
||-------------------|-------------------------------|----------------------|
||-------------------|-------------------------------|----------------------|
||--9----------------|--(9)--(7   /9)--10------ /12--|--9-------------------|
||-------------------|-------------------------------|------------------10--|
||-------------------|-------------------------------|----------------------|


|--------------------------|-------------------|-------------------------------|
|--------------------------|-------------------|-------------------------------|
|--------------------------|-------------------|-------------------------------|
|--------------------10----|--9----------------|--(9)--(7   /9)--10------ /12--|
|--10------(9\ 7)----------|-------------------|-------------------------------|
|--------------------------|-------------------|-------------------------------|


|---------------------|----------------------------||
|---------------------|----------------------------||
|---------------------|----------------------------||
|--9------------9--7--|------------------9p7-9--7--||
|---------------------|--10------(9\ 7)------------||
|---------------------|----------------------------||



---------
Guitar 2:
---------


||-------------------------|------------------------|
||-------------------------|------------------------|
||-------------------------|------------------------|
||--2------2-4-5--4--2-----|------------------------|
||----------------------5--|--3----3--5--2----2--5--|
||-------------------------|------------------------|


|-------------------------|------------------------|-------------------------|
|-------------------------|------------------------|-------------------------|
|-------------------------|------------------------|-------------------------|
|--2------2-4-5--4--2-----|------------------------|--2------2-4-5--4--2-----|
|----------------------5--|--3----3--5--2----2-----|----------------------5--|
|-------------------------|---------------------3--|-------------------------|


|------------------------|-------------------------|
|------------------------|-------------------------|
|------------------------|-------------------------|
|------------------------|--2------2-4-5--4--2-----|
|--3----3--5--2----2--5--|----------------------5--|
|------------------------|-------------------------|


|----------------------------||
|----------------------------||
|----------------------------||
|----------------------------||
|--3----3--5--2--10p9-10--9--||
|----------------------------||



================================================================================
Section 7: Guitars 1 & 2                                       [ 04:40 - 05:00 ]
================================================================================


---------
Guitar 1:
---------


||------------------------------|------------------------------| |
||------------------------------|------------------------------| |
||------------------------------|------------------------------|*|
||--7~~---------------9p7-9--7--|--5~~---------------9p7-9--7--|*| x 4
||------------------------------|------------------------------| |
||------0-0-0--0-0-0------------|------0-0-0--0-0-0------------| |
        ............                   ............



---------
Guitar 2:
---------


||--------------------------------|--------------------------------| |
||--------------------------------|--------------------------------| |
||--------------------------------|--------------------------------|*|
||--------------------------------|--------------------------------|*| x 4
||--9~~---------------10p9-10--9--|--7~~---------------10p9-10--9--| |
||------0-0-0--0-0-0--------------|------0-0-0--0-0-0--------------| |
        ............                     ............



================================================================================
Section 8: Guitars 1 & 2                                       [ 05:00 - 05:19 ]
================================================================================


                             |____________________[1,2,3]
||---------------------------|------------------------| |
||---------------------------|------------------------| |
||---------------------------|------------------------|*|
||---------------------------|--5----------4----------|*| x 4
||--2----2--2-2--2--2--2--5--|--3----5--5--2----4--5--| |
||--0----0--0-0--0--0--0--3--|--3----3--3--2----2--3--| |
         ...............


|________________________[4]
|-------------------------||
|-------------------------||
|-------------------------||
|--5----------4----4-- /--||
|--3----0--5--2----2-- /--||
|--3----0--3--2----2-- /--||
       ...



================================================================================
Repeat Section 3, replacing the final bar with the following:  [ 05:19 - 05:58 ]
================================================================================


|-------------------||
|-------------------||
|-------------------||
|--7----------------||
|--9----------------||
|--9----------------||



================================================================================
Section 9: Guitars 1 & 2                                       [ 05:58 - 07:50 ]
================================================================================


---------
Guitar 1:
---------


||-------------------|---------------------|----------------------|
||-------------------|---------------------|----------------------|
||-------------------|---------------------|----------------------|
||--9----------------|--8------ \ 5--------|--4--5--4----4--------|
||--x----------------|--x---------x--------|--x--x--x----x--------|
||--7----------------|--6------ \ 3--------|--2--3--2----2--------|


|----------------------| |
|----------------------| |
|----------------------|*| x 5
|--(4)------------- /--|*|
|----------------------| |
|--(2)------------- /--| |


||----------------------|-----------------------|----------------------|
||---------------R-   --|-----------R-----------|----------------------|
||---------------E-   --|-----------E-----------|----------------------|
||---------------S-   --|-----------S-----------|----------------------|
||--9-------- \--T-   --|--8---- \--T--5--------|--4--5--4----4--------|
||--7-------- \---------|--6---- \-----3--------|--2--3--2----2--------|

|----------------------|----------------------|-----------------------|
|----------------------|---------------R-   --|-----------R-----------|
|----------------------|---------------E-   --|-----------E-----------|
|----------------------|---------------S-   --|-----------S-----------|
|--(4)------------- /--|--9-------- \--T-   --|--8---- \--T--5--------|
|--(2)------------- /--|--7-------- \---------|--6---- \-----3--------|


|----------------------|-------------------|-------------------||
|----------------------|-------------------|-------------------||
|----------------------|-------------------|-------------------||
|----------------------|-------------------|-------------------||
|--4--5--4----4--------|--(4)--------------|--(4)--------------||
|--2--3--2----2--------|--(2)--------------|--(2)--------------||



Hold the final chord and gradually fade out the volume.



---------
Guitar 2:
---------


||--------------------|-----------------------|----------------------|
||--------------------|-----------------------|----------------------|
||--11----------------|--10------ \ -7--------|--6--7--6----6--------|
||--x-----------------|--x-----------x--------|--x--x--x----x--------|
||--9-----------------|--8------- \ -5--------|--4--5--4----4--------|
||--------------------|-----------------------|----------------------|


|----------------------|--------------------|-----------------------|
|----------------------|--------------------|-----------------------|
|--(6)------------- /--|--11----------------|--10------ \ -7--------|
|----------------------|--x-----------------|--x-----------x--------|
|--(4)------------- /--|--9-----------------|--8------- \ -5--------|
|----------------------|--------------------|-----------------------|


|----------------------|------------------------------| |
|----------------------|------------------------------| |
|--6--7--6----6--------|------------------------------|*|
|--x--x--x----x--------|------------------------------|*| x 4
|--4--5--4----4--------|--4h5--4 \ 2--4   h 5--4-- /--| |
|----------------------|------------------------------| |


||-------------------|----------------------|
||-------------------|----------------------|
||-------------------|----------------------|
||-------------------|----------------------|
||--9----------------|--8------ \--5--------|
||-------------------|----------------------|


|-----------------------|-----------------------|
|-----------------------|-----------------------|
|-----------------------|-----------------------|
|-----------------------|-----------------------|
|--4 h 5--4----4--------|--(4)------------- /9--|
|-----------------------|-----------------------|


|-------------------|----------------------|-----------------------|
|-------------------|----------------------|-----------------------|
|-------------------|----------------------|-----------------------|
|-------------------|----------------------|-----------------------|
|--9----------------|--8------ \--5--------|--4 h 5--4----4--------|
|-------------------|----------------------|-----------------------|


|------------------------------|-------------------|----------------------||
|------------------------------|-------------------|----------------------||
|------------------------------|-------------------|----------------------||
|------------------------------|-------------------|----------------------||
|--4h5--4 \ 2--4   h 5--(4/9)--|--9----------------|--8------ \--5--------||
|------------------------------|-------------------|----------------------||



The tempo during this section gradually decreases to around 85 BPM.



================================================================================
Outro: Guitars 1 & 2                       [ Tempo = 108 BPM ] [ 07:50 - 08:23 ]
================================================================================


||---------------------------------------| |
||---------------------------------------| |
||---------------------------------------|*|
||---------------------------------------|*| x 8
||--[4]----[3]-------[3]--[4]--[3]--[0]--| |
||--------------[6]----------------------| |



Guitar 1 doesn't begin playing until the last note of the first bar.



||-----------------------------| |
||-----------------------------| |
||-----------------------------|*|
||-----------------------------|*| x 3
||---------4--3----------4--3--| |
||--[1]-----------[3]----------| |


|---------------------------||
|---------------------------||
|---------------------------||
|---------------------6--5--||
|---------4--3--6--5--4--3--||
|--[1]----------4--3--4--3--||



================================================================================
End
================================================================================


Tab summary:        Section 1
                    Section 2
                    Section 3
                    Section 1
                    Section 2
                    Section 3
                    Section 4
                    Section 5
                    Section 6
                    Section 7
                    Section 8
                    Section 3
                    Section 9
                    Outro

                    END
Добавлено: 04.10.2013
Другие материалы по этой песне:

Страница создана 04.10.2013
http://primanota.ru/my-dying-bride/the-blood-the-wine-the-roses-chords.htm
Привет, Гость.
Предлагаем пройти революционный курс по гитаре.
Подарок от PrimaNota.Ru, забирай!