PrimaNota.ru - самый крупный в мире бесплатный архив песенных текстов, аккордов, табулатур и нот


My Dying Bride - A Pale Shroud Of Longing - таба, видео

Регистрация Запомнить меня
Войти через:  Facebook Google Twitter Vk Yandex Mail.ru

My Dying Bride - A Pale Shroud Of Longing - таба, видео

Печатать
Просмотров: 75
Авторы музыки: My Dying Bride
Авторы текста: My Dying Bride
MY DYING BRIDE
A PALE SHROUD OF LONGING
C#-F#-B-E-G#-C#

TABBED BY andherembrace




------------------------------------------------------|
------------------------------------------------------|
------------------------------------------------------|
-----9-8-8--------------------------------------------|
-2----------/10-9\7-9/10-7--7--7--7--7--7--7--7-------|
-0-----------------------------------------------8----|



1
------------------------------------------------------------------|
------------------------------------------------------------------|
------------------------------------------------------------------|
----10-9-9--------------------------------------------------------|
-2----------10-9\7-9/10-10--10--10--10--10/12--12--14--14-10--9---|
-0---------------------------------------------------------8--7---|

2
------------------------------------------------------------------|
------------------------------------------------------------------|
------------------------------------------------------------------|
------------------------------------------------------------------|
----------------------------------------------------------10--9---|
-----------------------------------------------------------8--7---|





0:18

1
------------------------------------------------------|
------------------------------------------------------|
------------------------------------------------------|
-----9-8-8--------------------------------------------|
-2----------/10-9\7-9/10-7--7--7--7--7--7--7--7--7----|
-0-----------------------------------------------8----|

2
------------------------------------------------------|
------------------------------------------------------|
------------------------------------------------------|
------------------------------------------------------|
-2--------------------------7--7--7--7--7--7--7--7----|
-0-----------------------------------------------8----|



1
------------------------------------------------------------------|
------------------------------------------------------------------|
------------------------------------------------------------------|
----10-9-9--------------------------------------------------------|
-2----------10-9\7-9/10-10--10--10--10--10/12--12--14--14-10--9---|
-0---------------------------------------------------------8--7---|

2
------------------------------------------------------------------|
------------------------------------------------------------------|
------------------------------------------------------------------|
------------------------------------------------------------------|
-2--------------------------10--10--10--10--10--10--10----10--9---|
-0---------------------------------------------------------8--7---|




1
------------------------------------------------------|
------------------------------------------------------|
------------------------------------------------------|
-----9-8-8--------------------------------------------|
-2----------/10-9\7-9/10-7--7--7--7--7--7--7--7--7----|
-0-----------------------------------------------8----|

2
------------------------------------------------------|
------------------------------------------------------|
------------------------------------------------------|
------------------------------------------------------|
-2--------------------------7--7--7--7--7--7--7--7----|
-0-----------------------------------------------8----|



1
------------------------------------------------------------------|
------------------------------------------------------------------|
------------------------------------------------------------------|
----10-9-9--------------------------------------------------------|
-2----------10-9\7-9/10-10--10--10--10--10/12--12--14--14-10--9---|
-0---------------------------------------------------------8--7---|

2
------------------------------------------------------------------|
------------------------------------------------------------------|
------------------------------------------------------------------|
------------------------------------------------------------------|
-2--------------------------10--10--10--10--10--10--10----10--9---|
-0---------------------------------------------------------8--7---|




1
------------------------------------------------------|
------------------------------------------------------|
------------------------------------------------------|
-----9-8-8--------------------------------------------|
-2----------/10-9\7-9/10-7--7--7--7--7--7--7--7--7----|
-0-----------------------------------------------8----|

2
------------------------------------------------------|
------------------------------------------------------|
------------------------------------------------------|
------------------------------------------------------|
-2--------------------------7--7--7--7--7--7--7--7----|
-0-----------------------------------------------8----|



1
------------------------------------------------------------------|
------------------------------------------------------------------|
------------------------------------------------------------------|
----10-9-9--------------------------------------------------------|
-2----------10-9\7-9/10-10--10--10--10--10/12--12--14--14-10--9---|
-0---------------------------------------------------------8--7---|

2
------------------------------------------------------------------|
------------------------------------------------------------------|
------------------------------------------------------------------|
------------------------------------------------------------------|
-2--------------------------10--10--10--10--10--10--10----10--9---|
-0---------------------------------------------------------8--7---|







1:10

clean

---------------------------------------------------------------|
---------------------------------------------------------------|
-----0-------0-------0-------0-------0-------0-------0---------|
---------------------------------------------------------------|
---2---2---2---2---2---2---2---2---2---2---2---2---2---2-------|
-0-------3-------2-------3-------0-------3-------2-------2/3---|


---------------------------------------------------------------|
---------------------------------------------------------------|
-----0-------0-------0-------0-------0-------0-------0---------|
---------------------------------------------------------------|
---2---2---2---2---2---2---2---2---2---2---2---2---2---2-------|
-0-------3-------2-------3-------0-------3-------2-------2/3---|



---------------------------------------------------------------|
---------------------------------------------------------------|
-----0-------0-------0-------0-------0-------0-------0---------|
---------------------------------------------------------------|
---2---2---2---2---2---2---2---2---2---2---2---2---2---2-------|
-0-------3-------2-------3-------0-------3-------2-------2/3---|


---------------------------------------------------------------|
---------------------------------------------------------------|
-----0-------0-------0-------0-------0-------0-------0---------|
---------------------------------------------------------------|
---2---2---2---2---2---2---2---2---2---2---2---2---2---2-------|
-0-------3-------2-------3-------0-------3-------2-------2/3---|



---------------------------------------------------------------|
---------------------------------------------------------------|
-----0-------0-------0-------0-------0-------0-------0---------|
---------------------------------------------------------------|
---2---2---2---2---2---2---2---2---2---2---2---2---2---2-------|
-0-------3-------2-------3-------0-------3-------2-------2/3---|



---------------------------------------------------------------|
---------------------------------------------------------------|
-----0-------0-------0-------0-------0-------0-------0---------|
---------------------------------------------------------------|
---2---2---2---2---2---2---2---2---2---2---2---2---2---2-------|
-0-------3-------2-------3-------0-------3-------2-------2/3---|







2:02

1
------------------------------------------------------|
------------------------------------------------------|
------------------------------------------------------|
-----9-8-8--------------------------------------------|
-2----------/10-9\7-9/10-7--7--7--7--7--7--7--7-------|
-0-----------------------------------------------8----|

2
---------------------------------------------------|
---------------------------------------------------|
---------------------------------------------------|
-----9-8-8-----------------------------------------|
-2----------/10-9\7-9/10-7--7--7--7--7--7--7--7----|
-0-----------------------------------------------8-|



1
------------------------------------------------------------------|
------------------------------------------------------------------|
------------------------------------------------------------------|
----10-9-9--------------------------------------------------------|
-2----------10-9\7-9/10-10--10--10--10--10/12--12--14--14-10--9---|
-0---------------------------------------------------------8--7---|

2
------------------------------------------------------------------|
------------------------------------------------------------------|
------------------------------------------------------------------|
------------------------------------------------------------------|
-2--------------------------10--10--10--10--10--10--10----10--9---|
-0---------------------------------------------------------8--7---|






1
------------------------------------------------------|
------------------------------------------------------|
------------------------------------------------------|
-----9-8-8--------------------------------------------|
-2----------/10-9\7-9/10-7--7--7--7--7--7--7--7-------|
-0-----------------------------------------------8----|

2
---------------------------------------------------|
---------------------------------------------------|
---------------------------------------------------|
-----9-8-8-----------------------------------------|
-2----------/10-9\7-9/10-7--7--7--7--7--7--7--7----|
-0-----------------------------------------------8-|



1
------------------------------------------------------------------|
------------------------------------------------------------------|
------------------------------------------------------------------|
----10-9-9--------------------------------------------------------|
-2----------10-9\7-9/10-10--10--10--10--10/12--12--14--14-10--9---|
-0---------------------------------------------------------8--7---|

2
------------------------------------------------------------------|
------------------------------------------------------------------|
------------------------------------------------------------------|
------------------------------------------------------------------|
-2--------------------------10--10--10--10--10--10--10----10--9---|
-0---------------------------------------------------------8--7---|









2:37

---------------------------------------------------------------|
---------------------------------------------------------------|
-----0-------0-------0-------0-------0-------0-------0---------|
---------------------------------------------------------------|
---2---2---2---2---2---2---2---2---2---2---2---2---2---2-------|
-0-------3-------2-------3-------0-------3-------2-------2/3---|


---------------------------------------------------------------|
---------------------------------------------------------------|
-----0-------0-------0-------0-------0-------0-------0---------|
---------------------------------------------------------------|
---2---2---2---2---2---2---2---2---2---2---2---2---2---2-------|
-0-------3-------2-------3-------0-------3-------2-------2/3---|



---------------------------------------------------------------|
---------------------------------------------------------------|
-----0-------0-------0-------0-------0-------0-------0---------|
---------------------------------------------------------------|
---2---2---2---2---2---2---2---2---2---2---2---2---2---2-------|
-0-------3-------2-------3-------0-------3-------2-------2/3---|


---------------------------------------------------------------|
---------------------------------------------------------------|
-----0-------0-------0-------0-------0-------0-------0---------|
---------------------------------------------------------------|
---2---2---2---2---2---2---2---2---2---2---2---2---2---2-------|
-0-------3-------2-------3-------0-------3-------2-------2/3---|







3:12


---------------------------------------------------------|
---------------------------------------------------------|
---------------------------------------------------------|
10-9------10-9------10-9-----9-7-------9-7-------9-7-----|
-x-x-------x-x-------x-x-----x-x-------x-x-------x-x-----|
-8\7--0-0--8\7--0-0--8\7--0--7\5--0-0--7\5--0-0--7\5--0--|
      * *       * *       *       * *       * *       *

------------------------------------------------------------|
------------------------------------------------------------|
------------------------------------------------------------|
-7-5-------7-5-------7-5-----5-4-------5-4------------------|
-x-x-------x-x-------x-x-----x-x-------x-x--0-2-3-5-3-2-0-2-|
-5\3--0-0--5\3--0-0--5\3--0--3\2--0-0--3\2--0-2-3-5-3-2-0-2-|
      * *       * *       *       * *       * * * * * * * * 


---------------------------------------------------------|
---------------------------------------------------------|
---------------------------------------------------------|
10-9------10-9------10-9-----9-7-------9-7-------9-7-----|
-x-x-------x-x-------x-x-----x-x-------x-x-------x-x-----|
-8\7--0-0--8\7--0-0--8\7--0--7\5--0-0--7\5--0-0--7\5--0--|
      * *       * *       *       * *       * *       *

------------------------------------------------------------|
------------------------------------------------------------|
------------------------------------------------------------|
-7-5-------7-5-------7-5-----5-4-------5-4------------------|
-x-x-------x-x-------x-x-----x-x-------x-x--0-2-3-5-3-2-0-2-|
-5\3--0-0--5\3--0-0--5\3--0--3\2--0-0--3\2--0-2-3-5-3-2-0-2-|
      * *       * *       *       * *       * * * * * * * * 


---------------------------------------------------------|
---------------------------------------------------------|
---------------------------------------------------------|
10-9------10-9------10-9-----9-7-------9-7-------9-7-----|
-x-x-------x-x-------x-x-----x-x-------x-x-------x-x-----|
-8\7--0-0--8\7--0-0--8\7--0--7\5--0-0--7\5--0-0--7\5--0--|
      * *       * *       *       * *       * *       *

------------------------------------------------------------|
------------------------------------------------------------|
------------------------------------------------------------|
-7-5-------7-5-------7-5-----5-4-------5-4------------------|
-x-x-------x-x-------x-x-----x-x-------x-x--0-2-3-5-3-2-0-2-|
-5\3--0-0--5\3--0-0--5\3--0--3\2--0-0--3\2--0-2-3-5-3-2-0-2-|
      * *       * *       *       * *       * * * * * * * * 



---------------------------------------------------------|
---------------------------------------------------------|
---------------------------------------------------------|
10-9------10-9------10-9-----9-7-------9-7-------9-7-----|
-x-x-------x-x-------x-x-----x-x-------x-x-------x-x-----|
-8\7--0-0--8\7--0-0--8\7--0--7\5--0-0--7\5--0-0--7\5--0--|
      * *       * *       *       * *       * *       *

------------------------------------------------------------|
------------------------------------------------------------|
------------------------------------------------------------|
-7-5-------7-5-------7-5-----5-4-------5-4------------------|
-x-x-------x-x-------x-x-----x-x-------x-x--0-2-3-5-3-2-0-2-|
-5\3--0-0--5\3--0-0--5\3--0--3\2--0-0--3\2--0-2-3-5-3-2-0-2-|
      * *       * *       *       * *       * * * * * * * * 






4:22


acoustic finger picked



-7--7--10--7---8--12--14--15--7--7--10--7---8--12--7--10---|
-----------------------------------------------------------|
--------7----------9--11--12---------7----------9------7---|
----9------9--10-----------------9------9--10------9-------|
-----------------------------------------------------------|
-0----------------------------0----------------------------|



-7--7--10--7---8--12--14--15--7--7--10--7---8--12--7--10---|
-----------------------------------------------------------|
--------7----------9--11--12---------7----------9------7---|
----9------9--10-----------------9------9--10------9-------|
-----------------------------------------------------------|
-0----------------------------0----------------------------|



-7--7--10--7---8--12--14--15--7--7--10--7---8--12--7--10---|
-----------------------------------------------------------|
--------7----------9--11--12---------7----------9------7---|
----9------9--10-----------------9------9--10------9-------|
-----------------------------------------------------------|
-0----------------------------0----------------------------|



-7--7--10--7---8--12--14--15--7--7--10--7---8--12--7--10---|
-----------------------------------------------------------|
--------7----------9--11--12---------7----------9------7---|
----9------9--10-----------------9------9--10------9-------|
-----------------------------------------------------------|
-0----------------------------0----------------------------|


                                               h   h
-7--7--10--7---8--12--14--15--7--7--10--7---------24------|
--------------------------------------------------24------|
--------7----------9--11--12---------7--------24--24------|
----9------9--10-----------------9------9-----------------|
----------------------------------------------------------|
-0----------------------------0-------------0-------------|







4:59


---------------------------------------------------------|
---------------------------------------------------------|
---------------------------------------------------------|
---------------------------------------------------------|
--------------7--7----------10--10----------9--9---------|
-0--0--0-0-0--8--8--8-10-8---7---7---7-7-5--5--5--8-8-7--|
       * * *        *  * *           * * *        * * *

--------------------------------------------------------|
--------------------------------------------------------|
--------------------------------------------------------|
--------------------------------------------------------|
-----------7--7---------10--10----------7--7------------|
-0--0-0-0--8--8--8-10-8--7---7---7-7-5--3--3---8-8-7----|
    * * *        *  * *          * * *         * * *


-------------------------------------------------------|
-------------------------------------------------------|
-------------------------------------------------------|
-------------------------------------------------------|
------------7--7----------10--10----------9--9---------|
--0--0-0-0--8--8--8-10-8---7---7---7-7-5--5--5--8-8-7--|
     * * *        *  * *           * * *        * * *

--------------------------------------------------------|
--------------------------------------------------------|
--------------------------------------------------------|
--------------------------------------------------------|
-----------7--7---------10--10----------7--7------------|
-0--0-0-0--8--8--8-10-8--7---7---7-7-5--3--3---8-8-7----|
    * * *        *  * *          * * *         * * *





--------------------------------------------------|
--------------------------------------------------|
--------------------------------------------------|
--------------------------------------------------|
-------------------------7-7-7-7-7-7-7-7-7-7-7-7--|
-0-0-0-0-0-0-0-0-0-0-0-0-8-8-8-8-8-8-8-8-8-8-8-8--|
 * * * * * * * * * * * * * * * * * * * * * * * * 

--------------------------------------------------|
--------------------------------------------------|
--------------------------------------------------|
--------------------------------------------------|
101010101010101010101010-9-9-9-9-9-9-9-9-9--------|
-7-7-7-7-7-7-7-7-7-7-7-7-5-5-5-5-5-5-5-5-5-8-8-7--|
 * * * * * * * * * * * * * * * * * * * * * * * *

--------------------------------------------------|
--------------------------------------------------|
--------------------------------------------------|
--------------------------------------------------|
-------------------------7-7-7-7-7-7-7-7-7-7-7-7--|
-0-0-0-0-0-0-0-0-0-0-0-0-8-8-8-8-8-8-8-8-8-8-8-8--|
 * * * * * * * * * * * * * * * * * * * * * * * * 

--------------------------------------------------|
--------------------------------------------------|
--------------------------------------------------|
--------------------------------------------------|
101010101010101010101010-7-7-7-7-7-7-7-7-7--------|
-7-7-7-7-7-7-7-7-7-7-7-7-3-3-3-3-3-3-3-3-3-8-8-7--|
 * * * * * * * * * * * * * * * * * * * * * * * *





--------------------------------------------------|
--------------------------------------------------|
--------------------------------------------------|
--------------------------------------------------|
-------------------------7-7-7-7-7-7-7-7-7-7-7-7--|
-0-0-0-0-0-0-0-0-0-0-0-0-8-8-8-8-8-8-8-8-8-8-8-8--|
 * * * * * * * * * * * * * * * * * * * * * * * * 

--------------------------------------------------|
--------------------------------------------------|
--------------------------------------------------|
--------------------------------------------------|
101010101010101010101010-9-9-9-9-9-9-9-9-9--------|
-7-7-7-7-7-7-7-7-7-7-7-7-5-5-5-5-5-5-5-5-5-8-8-7--|
 * * * * * * * * * * * * * * * * * * * * * * * *

--------------------------------------------------|
--------------------------------------------------|
--------------------------------------------------|
--------------------------------------------------|
-------------------------7-7-7-7-7-7-7-7-7-7-7-7--|
-0-0-0-0-0-0-0-0-0-0-0-0-8-8-8-8-8-8-8-8-8-8-8-8--|
 * * * * * * * * * * * * * * * * * * * * * * * * 

--------------------------------------------------|
--------------------------------------------------|
--------------------------------------------------|
--------------------------------------------------|
101010101010101010101010-7-7-7-7-7-7-7-7-7--------|
-7-7-7-7-7-7-7-7-7-7-7-7-3-3-3-3-3-3-3-3-3-8-8-7--|
 * * * * * * * * * * * * * * * * * * * * * * * *





---------------------------------------------------------|
---------------------------------------------------------|
---------------------------------------------------------|
---------------------------------------------------------|
--------------7--7----------10--10----------9--9---------|
-0--0--0-0-0--8--8--8-10-8---7---7---7-7-5--5--5--8-8-7--|
       * * *        *  * *           * * *        * * *

--------------------------------------------------------|
--------------------------------------------------------|
--------------------------------------------------------|
--------------------------------------------------------|
-----------7--7---------10--10----------7--7------------|
-0--0-0-0--8--8--8-10-8--7---7---7-7-5--3--3---8-8-7----|
    * * *        *  * *          * * *         * * *


-------------------------------------------------------|
-------------------------------------------------------|
-------------------------------------------------------|
-------------------------------------------------------|
------------7--7----------10--10----------9--9---------|
--0--0-0-0--8--8--8-10-8---7---7---7-7-5--5--5--8-8-7--|
     * * *        *  * *           * * *        * * *

--------------------------------------------------------|
--------------------------------------------------------|
--------------------------------------------------------|
--------------------------------------------------------|
-----------7--7---------10--10----------7--7------------|
-0--0-0-0--8--8--8-10-8--7---7---7-7-5--3--3---8-8-7----|
    * * *        *  * *          * * *         * * *





--------------------------------------------------|
--------------------------------------------------|
--------------------------------------------------|
--------------------------------------------------|
-------------------------7-7-7-7-7-7-7-7-7-7-7-7--|
-0-0-0-0-0-0-0-0-0-0-0-0-8-8-8-8-8-8-8-8-8-8-8-8--|
 * * * * * * * * * * * * * * * * * * * * * * * * 

--------------------------------------------------|
--------------------------------------------------|
--------------------------------------------------|
--------------------------------------------------|
101010101010101010101010-9-9-9-9-9-9-9-9-9--------|
-7-7-7-7-7-7-7-7-7-7-7-7-5-5-5-5-5-5-5-5-5-8-8-7--|
 * * * * * * * * * * * * * * * * * * * * * * * *

--------------------------------------------------|
--------------------------------------------------|
--------------------------------------------------|
--------------------------------------------------|
-------------------------7-7-7-7-7-7-7-7-7-7-7-7--|
-0-0-0-0-0-0-0-0-0-0-0-0-8-8-8-8-8-8-8-8-8-8-8-8--|
 * * * * * * * * * * * * * * * * * * * * * * * * 

--------------------------------------------------|
--------------------------------------------------|
--------------------------------------------------|
--------------------------------------------------|
101010101010101010101010-7-7-7-7-7-7-7-7-7--------|
-7-7-7-7-7-7-7-7-7-7-7-7-3-3-3-3-3-3-3-3-3-8-8-7--|
 * * * * * * * * * * * * * * * * * * * * * * * *





--------------------------------------------------|
--------------------------------------------------|
--------------------------------------------------|
--------------------------------------------------|
-------------------------7-7-7-7-7-7-7-7-7-7-7-7--|
-0-0-0-0-0-0-0-0-0-0-0-0-8-8-8-8-8-8-8-8-8-8-8-8--|
 * * * * * * * * * * * * * * * * * * * * * * * * 

--------------------------------------------------|
--------------------------------------------------|
--------------------------------------------------|
--------------------------------------------------|
101010101010101010101010-9-9-9-9-9-9-9-9-9--------|
-7-7-7-7-7-7-7-7-7-7-7-7-5-5-5-5-5-5-5-5-5-8-8-7--|
 * * * * * * * * * * * * * * * * * * * * * * * *

--------------------------------------------------|
--------------------------------------------------|
--------------------------------------------------|
--------------------------------------------------|
-------------------------7-7-7-7-7-7-7-7-7-7-7-7--|
-0-0-0-0-0-0-0-0-0-0-0-0-8-8-8-8-8-8-8-8-8-8-8-8--|
 * * * * * * * * * * * * * * * * * * * * * * * * 

--------------------------------------------------|
--------------------------------------------------|
--------------------------------------------------|
--------------------------------------------------|
101010101010101010101010-7-7-7-7-7-7-7-7-7--------|
-7-7-7-7-7-7-7-7-7-7-7-7-3-3-3-3-3-3-3-3-3-8-8-7--|
 * * * * * * * * * * * * * * * * * * * * * * * *






---------------------------------------------------------|
---------------------------------------------------------|
---------------------------------------------------------|
---------------------------------------------------------|
--------------7--7----------10--10----------9--9---------|
-0--0--0-0-0--8--8--8-10-8---7---7---7-7-5--5--5--8-8-7--|
       * * *        *  * *           * * *        * * *

--------------------------------------------------------|
--------------------------------------------------------|
--------------------------------------------------------|
--------------------------------------------------------|
-----------7--7---------10--10----------7--7------------|
-0--0-0-0--8--8--8-10-8--7---7---7-7-5--3--3---8-8-7----|
    * * *        *  * *          * * *         * * *


-------------------------------------------------------|
-------------------------------------------------------|
-------------------------------------------------------|
-------------------------------------------------------|
------------7--7----------10--10----------9--9---------|
--0--0-0-0--8--8--8-10-8---7---7---7-7-5--5--5--8-8-7--|
     * * *        *  * *           * * *        * * *

-------------------------------------------------------------|
-------------------------------------------------------------|
-------------------------------------------------------------|
-------------------------------------------------------------|
-----------7--7---------10--10----------7--7-----------2-----|
-0--0-0-0--8--8--8-10-8--7---7---7-7-5--3--3---8-8-7---0-----|
    * * *        *  * *          * * *         * * *
Добавлено: 03.07.2013
Другие материалы по этой песне:
  • Аккорды и текст

Страница создана 03.07.2013
http://primanota.ru/my-dying-bride/a-pale-shroud-of-longing-chords.htm
Привет, Гость.
Предлагаем пройти революционный курс по гитаре.
Подарок от PrimaNota.Ru, забирай!